Oops, an error
Loading. Please wait.

New Speedway Boogie tab

version 2
version 2

Whole song

1,606 views 24 this week
no commentswrite comment
1 2 3 4 5
x 7
add to favorites
×
Save as Personal and add changes to this tab that will be seen only by you. Learn more ›
×
You can save this tab as Personal to edit and correct it or add notes. All changes will be seen only by you. Learn more »
launch autoscroll
font size
0
reset
how to read this tab
guitar tuner
edit
Autoscroll
slow
fast
+/-
esc
set tempo
stop
Author
e|---------------------------------------|
B|---------------------------------------|
G|---------------------------------------|
D|---------------------------------------|
A|----0-1-2---5-5-5-5-5/7----5-5-5-5-5/7-|
E|--0-------0--------------0-------------|

 Please don't dominate the rap, Jack / If you got nothin new to say
e|------------------------------------------------------------------------------|
B|-----------------------------------------------------------------------5-3-5--|
G|------------------------------------------------------------------------------|
D|---------5-5----------------5-------------------------------------------------|
A|--2-5/7------7-5\2--7-7-5-7---------------------------------------------------|
E|------------------------------------------------------------------------------|

 If you please don't back up the track, this trains got to run today
e|-------------------------------------------------------------------------------|
B|-------------------------10b11-10--8-------------------------------------------|
G|----------------------------------------------------------------7-7h-9-7-------|
D|-------------------------------------------------------------7/9----------9\---|
A|-------------------------------------------------------------------------------|
E|----------------------------------------------------------------------------0--|

 I spent a little time on the mountain, I spent a little time on the hill\ Heard some say better run away
e|-----------------------------0-0\------------------------------------------------------------------|
B|-----------------------------5-5\------------------------------------------------------------------|
G|-----------------------------4-4\------------------------------------------------------------------|
D|---------------------------------------------------------------------------------------------------|
A|5-7-7-7-------------------------------------------------------------------0h2--2-5/7--5-----7-5-7--|
E|-----------------------------------------------------------------------------------------3~--------|

 Others say better stand still\       Now I don't know, but I was told, "Its hard to run 
 with the weight.."
e|---------------------------------------------------------------------------3-3----------5-3-5\---|
B|-----------------------------2-2---------5-5-3-5-5-3-5\--------------------3-3---7-7----5-3-5----|
G|---------------------------------2/3-4-------------------------------------4-4---7-7----6-4-6----|
D|---------------------------------------------------------------------------------7-7-------------|
A|-------------------------------------------------------------------------------------------------|
E|-------------------------------------------------------------------------------------------------|

 I don't know but I've heard it said, its just as hard with the weight of lead
e|----------------------------------------3-3-----------5-5-3-5-3-5-5-3-5-3---5-5\-|
B|--5-3-5-3---5-5-3\----------------------3-3----7-7----5-5-3-5-3-5-5-3-5-3---5-5\-|
G|--4-4-4-4-4-4-4-4-----------------------4-4----7-7----6-6-4-6-4-6-6-4-6-4---6-6\-|
D|-----------------------------------------------7-7-------------------------------|
A|---------------------------------------------------------------------------------|
E|---------------------------------------------------------------------------------|

e|----------------------------------------------------------------------------------|
B|-----------------------------------------3-------5-------5------------------------|
G|-------------------2b3p0 2-0----------2h4-----4h6-----2h4---0---------------------|
D|----------------------------2--------------------------------2--------------------|
A|------5---5-7---------------------------------------------------------------------|
E|--5s7-----------------------------------------------------------------------------|


 Who can deny, who can deny, its not just a change in style
e|-----------------------------------------------------------------------|
B|-----------------------------------------------------------------------|
G|-----------------------------------------------------------------------|
D|-----------------------------------------------------------------------|
A|----------------------------5-7-5-------------------7-5-7----7-5-5h7-7-|
E|----------------------5-5s7-------7-5-5\3-0----------------------------|

 One step done and another begun and I wonder how many miles\    I spent a little time on the mountain
e|----------------------------------------------------------------------------------------------0---0\---|
B|----------------------3-----------------------------------------------------------------------5---5\---|
G|------------------2/4----2-0h1p0--------------------------------------------------------------7---7\---|
D|----------------------------------2--------------------------------------------------------------------|
A|--------------------------------------------------------5-55-5h7p5--5h7p5------------------------------|
E|----------------------------------------------------6/7------------------------------------------------|

 Spent a little time on the hill\         Things went down we dont understand but I think in time we will
e|-----------------------------10----------------------------------------------------------------------------|
B|-------------------------------12r10-8~------------------------------------------------------------2--2-2~-|
G|------------------------------------------------------7h9p7------------------------------------------------|
D|-----------------------------------------------------------------------------------------------------------|
A|---------------------------------------------------------------------7\------------------------------------|
E|-------------------------------------------------------------------------/3-----3------- 5-----------------|

 Now I don't know, but I was told, "In the heat of the sun a man died of cold"
e|-----------------------------------------3-----------------------------5-3-5\---|
B|---5-3-5p3-----5-3-5\--------------------3-----------7-----------------5-3-5----|
G|---4-4-4---(4)-4-4-4---------------------4-----------7-----------------6-4-6----|
D|-----------------------------------------------------7--------------------------|
A|--------------------------------------------------------------------------------|
E|--------------------------------------------------------------------------------|

 Keep on running or stand and wait with the sun so dark and the hour so late
e|------------------------------------------3-------------------5-5-3-5-3-5-5-3-5-3---5-5\--------|
B|--5-3-5-3----5-5-3-5\---------------------3-------7-----------5-5-3-5-3-5-5-3-5-3---5-5\--------|
G|--4-4-4-4-(4)4-4-4-4----------------------4-------7-----------6-6-4-6-4-6-6-4-6-4---6-6\--------|
D|--------------------------------------------------7---------------------------------------------|
A|------------------------------------------------------------------------------------------------|
E|------------------------------------------------------------------------------------------------|


e|---------------------------------------12-(10)---------10-------10----------------------------|
B|---------------------------------------------10b-10-12----10-12----10b-8b---------------------|
G|------------------------------7-9-9-------------------------------------------------7-9-9-9\--|
D|--------------------9\7p5-7/9---------------------------------------------------7/9-----------|
A|------------5-5h7-----------------------------------------------------------------------------|
E|--(3-0)-7-------------------------------------------------------------------------------------|

        You can't overlook the lack jack, of any other highway to ride

e|-------------------------------------------------------------------------------|
B|-----------------------------------------------------------------3-------------|
G|-------7-9-9-9\----------------------------------------------2/4---2-0h1p0-----|
D|---7/9-------------------------------------------------------------------------|
A|--------------------5h7-5-------------7---77-----------------------------------|
E|------------------7-------7-5-3----(0)-(0)-------------------------------------|

It's got no signs or dividing lines and very few rules to guide

e|--------------------------------------------------------------------------------|
B|--------------------------------------------------------------------------------|
G|--------------------------------------------------------------------------------|
D|-------------------------------------------------------------------5b-----------|
A|---------------------------7h5-7h5----------------------------5-----------------|
E|--------------------------------------------------------5-7-7---7----7----------|

 Spent a little time on the mountain, Spent a little time on the hill                 I 
 saw things getting
e|----------------------------------11/12-----------------------------10------------------------------------|
B|----------------------------------11/12--------------------------------10b-8-10-8b------------------------|
G|-----------------------------------------------------------------------------------9p7---7-9---7-9-9------|
D|---------------------------------------------------------------------------------------9-----9------------|
A|----------------------------------------------------------------------------------------------------------|
E|----------------------------------------------------------------------------------------------------------|

  out of hand, but I guess they always will
e|-------------------3---------------------5----5--5-----|
B|-------------------3-----------7---------5----5--5-----|
G|-------------------4-----------7---------5h6--5h65h6---|
D|-------------------------------7-----------------------|
A|-------------------------------------------------------|
E|-------------------------------------------------------|

 Now I don't know, but I was told, "If the horse dont pull you got to carry the load"
e|-----------------------------------------3-----------------------------5-3-5\-----|
B|---5-3-5p3-----5-5-3-5\------------------3-----------7-----------------5-3-5------|
G|---4-4-4---(4)-4-4-4-4\------------------4-----------7-----------------6-4-6------|
D|-----------------------------------------------------7----------------------------|
A|----------------------------------------------------------------------------------|
E|----------------------------------------------------------------------------------|

I dont know who's back's that strong, maybe find out before too long
e|------------------------------------------3-------------------5-5-3-5-3-5-5-3-5-3---5-5\----|
B|--5-3-5-3-----5-5-3-5\--------------------3-------7-----------5-5-3-5-3-5-5-3-5-3---5-5\----|
G|--4-4-4-4-(4)-4-4-4-4\--------------------4-------7-----------6-6-4-6-4-6-6-4-6-4---6-6\----|
D|--------------------------------------------------7-----------------------------------------|
A|--------------------------------------------------------------------------------------------|
E|--------------------------------------------------------------------------------------------|

One way or another, one way or another
e|-----10---------------------------------------------------------|
B|-------10b-8----------------------------------------------------|
G|-------------9----------7-----7--7h9----------------------------|
D|--------------------7h9---7h9-----------------------------------|
A|----------------------------------------------------------------|
E|----------------------------------------------------------------|

One way or another, one way or another, this darkness has got to give
e|-------------------------------------------------------------------|
B|-------------------------------------------------------------------|
G|-------------------------------------------------------------------|
D|-------------------------------------------------------------------|
A|-------------------------------------------5---5-5--7/-------------|
E|-------------------------------------5-7-7---7---------------------|

One way or another, one way or another
e|--------------------------------------------------------------|
B|--------------------------------------------------------------|
G|(2b3p0)-------2b3p0-------------------------------------------|
D|----------0h2-----------0h2--0h2--0h2-------------------------|
A|--------------------------------------------------------------|
E|--------------------------------------------------------------|

One way or another, this darkness has got to give
e|--------------------------------------------------------------------|
B|--------------------------------------------------------------------|
G|---------------2b3p0------------------------------------------------|
D|------0h2--0h2------------------------------------------------------|
A|--------------------------------------------------------------------|
E|--------------------------------------------------------------------|

One way or another, one way or another
e|-------------------------------------------------------|
B|-------------------------------------------------------|
G|-------------------------------------------------------|
D|-------------------------------------------------------|
A|--------------------------------5---5---5---5---5-7----|
E|----------------------------------7---7---7---7--------|

One way or another, this darkness has got to give
e|--------------------------------------------------------10---------------------|
B|-----------------------------------------------------------10b-8-10-8----------|
G|------------------------------------------------------------------------9p7--7-|
D|----------------------------------------------------------------------------9--|
A|-------------------------------------------------------------------------------|
E|-------------------------------------------------------------------------------|



************************************

| (n)  Ghost note
| h    Hammer-on
| p    Pull-off
| r    Release
| b    Bend
| /    Slide up
| \    Slide down
| ~    Vibrato
| s    Slap

************************************

            
            
Suggest correction
Creating personal tab
Creating personal tab
You can edit any tab online and save it as your Personal.

You can edit, replace or remove any tab part or add personal notes – all changes will be seen only by you.

Personal tabs can be accessed anytime from any device, even offline.
Learn more »
comments
print report bad tab
guest
You may want to rate the tab now too:
select rating
Wanna post a correction for this tab? Suggest correction