Oops, an error
Loading. Please wait.

On The Road Again Tab

3,451 views 6 this week
1 commentread comment
1 2 3 4 5
1 last vote to show rating
add to favorites
launch autoscroll
font size
0
reset
how to read this tab
guitar tuner
Autoscroll
slow
fast
+/-
esc
set tempo
stop
Help us to improve Ultimate-Guitar.com Take our survey!
×
#----------------------------------PLEASE NOTE--------------------------------#
#This file is the author's own work and represents their interpretation of the#
#song. You may only use this file for private study, scholarship, or research.#
#-----------------------------------------------------------------------------#

Date: Sat, 04 Apr 1998 16:31:36 -0500
From: ToM 
Subject: gratefuldead/On the road again.TAB

Grateful Dead "On the Road Again" trad.
>From "Reckonin" more or less
2X
E---------8------------8----------8------8--5--------|
B-------8---8--------8----------8---8---------8--5---|
G---8h9-------9--8h9--------8h9-------9------------5-|
D----------------------------------------------------|
A----------------------------------------------------|
E----------------------------------------------------|


E--------------------------------8-------8--5--------|
B-10---------------------------8---8----------8--5---|
G-10-----------------------8h9-------9-------------5-|
D-10-------------------------------------------------|
A-8--------------------------------------------------|
E----------------------------------------------------|


C7>>>
Why I married a bad girl, tell you the reason why
Bad girls will even do things on the sly
Look for your supper to be good and hot
She never even put a stewbone in the pot

refrain
F
Shes on the road again, sure as you're born
C7
Natural born easy and on the road again
F
Shes on the road again, sure as you're born

E---------8------------8----------8------8--5--------|
B-------8---8--------8----------8---8---------8--5---|
G---8h9-------9--8h9--------8h9-------9------------5-|
D----------------------------------------------------|
A----------------------------------------------------|
E----------------------------------------------------|

C7>>>
Friends come by, say lookin'for his hat
Wants to know where your husbands' at
I don't know, he's on his way to the pen
Come on pretty mama! lets get on the road again

refrain
F
On the road again, sure as you're born
C7
Natural born easy and on the road again
F
Shes on the road again, sure as you're born

2X
E---------8------------8*----------8------8--5---------|
B-------8---8--------8----------8---8---------8--5-----|
G---8h9-------9--8h9--------8h9-------9------------5---|
D------------------------------------------------------|
A------------------------------------------------------|
E------------------------------------------------------|
(*sometimes on 15 instead of 8)

Refrain instrumentally.

E---------8------------8----------8------8--5--------|
B-------8---8--------8----------8---8---------8--5---|
G---8h9-------9--8h9--------8h9-------9------------5-|
D----------------------------------------------------|
A----------------------------------------------------|
E----------------------------------------------------|

C7>>>
Went to my house, the front door was locked
Went down to my window, my window was locked
Jumped right back shook my head
Big old rounder was in my foldin bed
Jumped into the window broke the glass
Never seen that little rounder get on the road so fast.

refrain

2X
E---------8------------8----------8------8--5--------|
B-------8---8--------8----------8---8---------8--5---|
G---8h9-------9--8h9--------8h9-------9------------5-|
D----------------------------------------------------|
A----------------------------------------------------|
E----------------------------------------------------|

All comments welcome
Suggest correction
Give kudos to tab author, rate the tab!
1 2 3 4 5
comments
print report bad tab
1 comment total.
0 reply
sublimegroove 233 Jun 01, 2014 10:34 PM

I think this sounds better

e|---------8------------8----------8--------------------------|
B|-------8---8--------8----------8---8----10--8---------------|
G|---8h9-------9--8h9--------8h9-------9---------9--8---------|
D|-----------------------------------------------------10-----|
A|------------------------------------------------------------|
E|------------------------------------------------------------|

guest
You may want to rate the tab now too:
select rating
Wanna post a correction for this tab? Suggest correction