Oops, an error
Loading. Please wait.

Ripple Acoustic Tab

18,517 views 9 this week
no commentswrite comment
1 2 3 4 5
x 16
add to favorites
launch autoscroll
font size
0
reset
how to read this tab
guitar tuner
Autoscroll
slow
fast
+/-
esc
set tempo
stop
Help us to improve Ultimate-Guitar.com Take our survey!
×
Author
Ripple by the Grateful Dead

             4X                     4X         2X         2X
e-------------3---------------0------0----------0----------0---------------|
B-------------0-------0---0---1------1----------1----------1---------------|
G-------------0---0-----2---0-0------0------0---0----20----0-------0-------|
D--------0----0-----0---------2-0-2--2--0-2-----2--2----2--2--0------0-2-0-|
A-2--2-3------2---------------3------3----------3----------3-----3---------|
E---3------3--3------------------------------------------------------------|

              4X                    4X
e--------------0--------------0-----0---------------------------------|
B--------------0------0---1---1-----1----0----0-1---------------------|
G--------------0--0-----2---0-0-----0---0---------2----0--0-----------|
D---------0----0----0---------2--02-2-02---------------0h20-----------|
A--2--2-3------2--------------3-----3----------------3------3-3-2-0---|
E-3--3------3--3----------------------------------------------------3-|
Suggest correction
comments
print report bad tab
guest
You may want to rate the tab now too:
select rating
Wanna post a correction for this tab? Suggest correction