Oops, an error
Loading. Please wait.

Ripple Bass Tab

version 1
version 1

Whole song

Interactive

8,832 views 12 this week
no commentswrite comment
1 2 3 4 5
please rate
add to favorites
launch autoscroll
font size
0
reset
guitar tuner
Autoscroll
slow
fast
+/-
esc
set tempo
stop
Help us to improve Ultimate-Guitar.com Take our survey!
×
Author
           Beginning:
G|-----------------5-5------5-5----------------------------------------------|
D|---5-----------5----5---5----5---------------------------------------------|
A|---------0-2-3--------3--------3-2-0---------------------------------------|
E|-3---3-3-----------------------------3-3-----------------------------------|
  Would you hold it near as it were your own part:
G|---------------------------------------------------------------------------|
D|-5-5-----------------------------------------------------------------------|
A|--3---5-5--3-2-0-----------------------------------------------------------|
E|-------3---------3---------------------------------------------------------|
          Ripple part:
G|---------------------------------------------------------------------------|
D|-----------------------------0-0-------------------------------------------|
A|-2-2-2-2-0-0-0-0-----3-3-0-0-----------------------------------------------|
E|-----------------3-3-------------------------------------------------------|

Listen to the song to play the right parts at the right time. Enjoy 
Suggest correction
Give kudos to tab author, rate the tab!
1 2 3 4 5
comments
print report bad tab
guest
You may want to rate the tab now too:
select rating
Wanna post a correction for this tab? Suggest correction