Oops, an error
Loading. Please wait.

Rosemary Tab

version 1
version 1

Whole song

5,979 views 6 this week
no commentswrite comment
1 2 3 4 5
x 6
add to favorites
launch autoscroll
font size
0
reset
how to read this tab
guitar tuner
Autoscroll
slow
fast
+/-
esc
set tempo
stop
Help us to improve Ultimate-Guitar.com Take our survey!
×
Author
"Rosemary" by the Grateful Dead
Guitar part by Jerry Garcia (? I guess lol)
Tabbed by Dan Bogosian (UtBDan)
Visit UtBDan's band at:
http://www.geocities.com/underthbed/


e ----------------------------------5--------------|
B ----------------------------------7--------------|
G --------------------------------- 7--------------|
D ---------------------1—2--1-------7----6^7-------|
A -----1—2--2^4—2—2--4--------4^5---5--------------|
E --0----------------------------------------------|

e -----0----------2-------------------0------0-----|
B -----2----------3-------------------2------0-----|
G -----2----------4-------------------2------1-----|
D -----2--2--0----4-------------------2--2---2-----|
A --0--0-------4--2--2—2^4—2--2—2--0--0------2-----|
E -------------------------------------------0-----|

e ---------------------------------------------------------------|
B ---------------------------------------------------------------|
G -----------1----1---1-2----------------------------------------|
D ----2-1-2---------4-----------------2-0------------------------|
A ------------------------------5-4-5-------4--------------------|
E --0-----------0-----------0------------------------------------|

e -----------------------------0---------------------------------|
B -----------------------------2---------------------------------|
G -----------------------------2---------------------------------|
D -----------------------------2----------0----------------------|
A --4--5--4--2--4--2--0--2--0--0--5--4--2---4--2--0--4--2--0--2--|
E ---------------------------------------------------------------|

e ----------------------------------------------------------|
B ----------------------------------------------------------|
G ----------------------------------------------------------|
D ----2--4--2---2^4--6--7--6--4--2--2--4--0--0----0—0h2h4---|
A ---------------------------------------------4------------|
E --0-------------------------------------------------------|

e ----------------------------------------------------|
B ----------------------------------------------------|
G -----2--2--1--2--4--4--4--4--2—2p1--1----4--4--4----|
D --2------------------------------------2-------2----|
A ----------------------------------------------------|
E ----------------------------------------------------|

e ---------------------------------------------------------------|
B ---------------------------------------------------------------|
G ------------------1--2--1--------------------------------------|
D -----2--1--2----4----------4--2--0--0----0----0--0----0--------|
A --------------------------------------4-------------4----------|
E --0-----------0-----------------------------2--------------2---|


e ------------------------2--------------0-----------------|
B ------------------------3--------------2-----------------|
G ------------------------4--------------2-----------------|
D -----2--0---------2-----4--4--4--------2---2--2--2-------|
A --0--------4--4------2--4--------2--0--0-------------2---|
E ---------------------------------------------------------|

e ---------------------------------------------------------------|
B ---------------------------------------------------------------|
G --------------------1--2--1------------------------------------|
D -----2--1—2p1--2--4---------4p2--2--0--0-----0-----0--0--2-----|
A ------------------------------------------4-----4--------------|
E --0------------------------------------------------------------|

e ---------------------------------------------------------------|
B -------------------------------------------------------------0-|
G -------------------------------------------------------------1-|
D --0----0-----------2--0----2----0----0----------2----2-------2-|
A -----4----4--2--0-------4-----2----4----2--4--0---4----2--4--2-|
E -------------------------------------------------------------0-|

e ------------------------------|
B ------------------------------|
G ------------------------------|
D ---------------1---2--1----1--|
A ----2--1--2--1---4-------4----|
E --0---------------------------|


Boots were of leather,
A breath of cologne
The mirror was a window she sat by alone.
All around the garden grew,
Scarlet and purple and crimson and blue.
She came dead and she went,
And at last went away,
The garden was sealed when the flowers decayed.
On the wall of the garden a legend did say,
No one may come here since no one may stay.
Suggest correction
comments
print report bad tab
guest
You may want to rate the tab now too:
select rating
Wanna post a correction for this tab? Suggest correction