Oops, an error
Loading. Please wait.

Rosemary tab

version 2
version 2

Whole song

85 views 3 this week
no commentswrite comment
1 2 3 4 5
2 more votes to show rating
add to favorites
×
Save as Personal and add changes to this tab that will be seen only by you. Learn more ›
×
You can save this tab as Personal to edit and correct it or add notes. All changes will be seen only by you. Learn more »
launch autoscroll
font size
0
reset
how to read this tab
guitar tuner
edit
Autoscroll
slow
fast
+/-
esc
set tempo
stop
Author
Difficulty
[Guitar 1]

e|--------------------------------------------------------------------------|
B|--------9-----9-----------9-----9-----------7-----7-----------7-----7-----|
G|--------9-----9-----------9-----9-----------7-----7-----------7-----7-----|
D|-----9-----9-----9-----9-----9-----9-----7-----7-----7-----7-----7-----7--|
A|--7-----------------7-----------------5-----------------5-----------------|
E|--------------------------------------------------------------------------|
    Boots were of    leather,     a     breath of       cologne          Her


[Guitar 2]

e|--------------------------------------------------------------------------|
B|--------------------------------------------------------------------------|
G|--------------------------------------------------------------------------|
D|-------------1--2--2/4--2--4--6--7--6------------------6h7--------------0-|
A|---------------------------------------4/5--------------------------------|
E|--0-----------------------------------------------------------------------|


[Guitar 1]

e|--------------------------------------------------------0-----------------|
B|--------2-----2-----------3-----3-----------2-----2-----0-----------------|
G|--------2-----2-----------4-----4-----------2-----2-----1-----------------|
D|-----2-----2-----2-----4-----4-----4-----2-----2-----2--2-----------------|
A|--0-----------------2-----------------0-----------------2-----------------|
E|--------------------------------------------------------0-----------------|
    mirror     was a  window        she sat quite      alone


[Guitar 2]

e|--------------------------------------------------------------------------|
B|--------------------------------------------------------------------------|
G|--------------------------------------------------------------------------|
D|---------2--0---------------------------------2---------------------------|
A|--0------------4--2---------2/4-2-2--0------------------------------------|
E|--------------------------------------------------------------------------|


[Guitar 1]

e|--------------------------------------------------------------------------|
B|--------------------------------------------------------------------------|
G|--------1-----1-----------1-----1-----------2-----2-----------2-----2-----|
D|--------2-----2-----------2-----2-----------0-----0-----------0-----0-----|
A|-----2-----2-----2-----2-----2-----2-----0-----0-----0-----0-----0-----0--|
E|--0-----------------0-----------------2-----------------2-----------------|
         All around         her   the   garden            grew


[Guitar 2]

e|-----------------------------------------------------------------------------|
B|-----------------------------------------------------------------------------|
G|-----------------------------------------------------------------------------|
D|--------2--1--2-----6-----------6--4--6--7---------------2-0-----------------|
A|--------------------------------------------------5-4-5------4--5-4-2--4-2-0-|
E|-----0-----------0--------0--------------------0-----------------------------|


[Guitar 1]

e|--------------------------------------------------------------------------|
B|--------2-----2-----------3-----3-----------2-----2-----------------------|
G|--------2-----2-----------4-----4-----------2-----2-----4-----------------|
D|-----2-----2-----2-----4-----4-----4-----2-----2-----2--4-----------------|
A|--0-----------------2-----------------0-----------------2-----------------|
E|--------------------------------------------------------------------------|
    scarlet       and purple        and crimson       and blue


[Guitar 2]

e|--------------------------------------------------------------------------|
B|--------------------------------------------------------------------------|
G|--------------------------------------------------------------------------|
D|--------2----------------0------------------------------------------------|
A|-0-2-0-------5--4--2------------4--2--0---4------2--0--2------------------|
E|--------------------------------------------------------------------------|


[Guitar 1]

e|--------------------------------------------------------------------------|
B|--------9-----9-----------9-----9-----------7-----7-----------7-----7-----|
G|--------9-----9-----------9-----9-----------7-----7-----------7-----7-----|
D|-----9-----9-----9-----9-----9-----9-----7-----7-----7-----7-----7-----7--|
A|--7-----------------7-----------------5-----------------5-----------------|
E|--------------------------------------------------------------------------|
       She came and   she  went,  and at last went       away,          the


[Guitar 2]

e|--------------------------------------------------------------------------|
B|--------------------------------------------------------------------------|
G|--------------------------------------------------------------------------|
D|--------2--4--2--------2h4-6-7-6-4-2--2--4--0--0-------0--------0h2h4--2--|
A|----------------------------------------------------4---------------------|
E|-----0-----------------0--------------------------------------------------|


[Guitar 1]

e|--------------------------------------------------------0-----------------|
B|--------2-----2-----------3-----3-----------2-----2-----0-----------------|
G|--------2-----2-----------4-----4-----------2-----2-----1-----------------|
D|-----2-----2-----2-----4-----4-----4-----2-----2-----2--2-----------------|
A|--0-----------------2-----------------0-----------------2-----------------|
E|--------------------------------------------------------0-----------------|
    garden      was   sealed     when the flowers      decayed


[Guitar 2]

e|--------------------------------------------------------------------------|
B|--------------------------------------------------------------------------|
G|--2-----2--1--2--4-----------4--4--2--2p1--1-----4--4--4------------------|
D|----------------------------------------------2--------2------------------|
A|--------------------------------------------------------------------------|
E|--------------------------------------------------------------------------|


[Guitar 1]

e|--------------------------------------------------------------------------|
B|--------------------------------------------------------------------------|
G|--------1-----1-----------1-----1-----------2-----2-----------2-----2-----|
D|--------2-----2-----------2-----2-----------0-----0-----------0-----0-----|
A|-----2-----2-----2-----2-----2-----2-----0-----0-----0-----0-----0-----0--|
E|--0-----------------0-----------------2-----------------2-----------------|
    On the wall of the garden     a     legend        did say


[Guitar 2]

e|--------------------------------------------------------------------------|
B|--------------------------------------------------------------------------|
G|--------------------------------------------------------------------------|
D|--------2--1--2-----4-/6--7--6--4--2--0----0-----0---------0--0-----0-----|
A|----------------------------------------------4------------------4--------|
E|--0--------------0----------------------------------2------------------2--|


[Guitar 1]

e|--------------------------------------------------------------------------|
B|--------2-----2-----------3-----3-----------2-----2-----------------------|
G|--------2-----2-----------4-----4-----------2-----2-----4-----------------|
D|-----2-----2-----2-----4-----4-----4-----2-----2-----2--4-----------------|
A|--0-----------------2-----------------0-----------------2-----------------|
E|--------------------------------------------------------------------------|
    no one        may come here    since no one       may stay


[Guitar 2]

e|--------------------------------------------------------------------------|
B|--------------------------------------------------------------------------|
G|--------------------------------------------------------------------------|
D|-----2--0--------2-----------4--4--2-----------2--2--2--------------------|
A|--0--------4--4-----2-----------------0-----------------2-----------------|
E|--------------------------------------------------------------------------|


[Guitar 1]

e|--------------------------------------------------------------------------|
B|--------9-----9-----------9-----9-----------7-----7-----------7-----7-----|
G|--------9-----9-----------9-----9-----------7-----7-----------7-----7-----|
D|-----9-----9-----9-----9-----9-----9-----7-----7-----7-----7-----7-----7--|
A|--7-----------------7-----------------5-----------------5-----------------|
E|--------------------------------------------------------------------------|


[Guitar 2]

e|--------------------------------------------------------------------------|
B|--------------------------------------------------------------------------|
G|--------------------------------------------------------------------------|
D|--------2--1--2p1-2-4--6--7--6--4p2--2--0--0-----0---0--0--2--0-----0-----|
A|----------------------------------------------4----4-------------4-----4--|
E|-----0--------------------------------------------------------------------|


[Guitar 1]

e|--------------------------------------------------------0-----------------|
B|--------2-----2-----------3-----3-----------2-----2-----0-----------------|
G|--------2-----2-----------4-----4-----------2-----2-----1-----------------|
D|-----2-----2-----2-----4-----4-----4-----2-----2-----2--2-----------------|
A|--0-----------------2-----------------0-----------------2-----------------|
E|--------------------------------------------------------0-----------------|


[Guitar 2]

e|--------------------------------------------------------------------------|
B|--------------------------------------------------------------------------|
G|--------------------------------------------------------------------------|
D|--------2--0-----2-----0-----0-----------2-----2--------------------------|
A|--2--0--------4-----2-----4-----2--4--0-----4-----2--4--------------------|
E|--------------------------------------------------------0-----------------|


[Guitar 1]

e|--------------------------------------------------------------------------|
B|--------------------------------------------------------------------------|
G|--------1-----1-----------1-----1-----------2-----2-----------2-----2-----|
D|--------2-----2-----------2-----2-----------0-----0-----------0-----0-----|
A|-----2-----2-----2-----2-----2-----2-----0-----0-----0-----0-----0-----0--|
E|--0-----------------0-----------------2-----------------2-----------------|
                                                    fades out...

[Guitar 2]

e|--------------------------------------------------------------------------|
B|--------------------------------------------------------------------------|
G|--------------------------------------------------------------------------|
D|--------2--1--4--2--6--4--7-6-4--6\0--------0-----2-----4-2-4--2--0----0--|
A|-----------------------------------------------4-----4--------------4-----|
E|-----0-----------------------------------0--------------------------------|

************************************

| h  Hammer-on
| p  Pull-off
| /  Slide up
| \  Slide down

************************************

            
            
Suggest correction
Creating personal tab
Creating personal tab
You can edit any tab online and save it as your Personal.

You can edit, replace or remove any tab part or add personal notes – all changes will be seen only by you.

Personal tabs can be accessed anytime from any device, even offline.
Learn more »
Give kudos to tab author, rate the tab!
1 2 3 4 5
comments
print report bad tab
guest
You may want to rate the tab now too:
select rating
Wanna post a correction for this tab? Suggest correction