Oops, an error
Loading. Please wait.

Samson And Delilah Chords

13,241 views 99 this week
no commentswrite comment
1 2 3 4 5
accurate
x 5
add to favorites
launch autoscroll
font size
0
reset
transpose
0
reset
- display chords -
guitar tuner
Tab Pro tools
  • play this tab
  • loop segment
  • change instrument
  • show fretboard
  • metronome
Autoscroll
slow
fast
+/-
esc
set tempo
stop
Contributor
Tabbers playing skills
intermediate
Three important chords
         Bmb5                     C+4+9                   C#mb5
  |---|---|---|---|---|   |---|---|---|---|---|   |---|---|---|---|---|
  |   |   |   |   |   |   |   |   |   |   |   |   |   |   |   |   |   |
  |---|---|---|---|---|   |---|---|---|---|---|   |---|---|---|---|---|
  |   X   |   |   |   |   |   |   |   |   |   |   |   |   |   |   |   |
  |---|---|---|---|---|   |---|---|---|---|---|   |---|---|---|---|---|
  |   |   X   |   X   |   |   X   |   |   |   |   |   |   |   |   |   |
  |---|---|---|---|---|   |---|---|---|---|---|   |---|---|---|---|---|
  |   |   |   X   |   |   |   |   X   |   X   |   |   X   |   |   |   |
  |---|---|---|---|---|   |---|---|---|---|---|   |---|---|---|---|---|
  |   |   |   |   |   |   |   |   |   X   |   |   |   |   X   |   X   |
  |---|---|---|---|---|   |---|---|---|---|---|   |---|---|---|---|---|
  |   |   |   |   |   |   |   |   |   |   |   |   |   |   |   X   |   |
  |---|---|---|---|---|   |---|---|---|---|---|   |---|---|---|---|---|
  |   |   |   |   |   |   |   |   |   |   |   |   |   |   |   |   |   |
  |---|---|---|---|---|   |---|---|---|---|---|   |---|---|---|---|---|


G                 C
If I had my way,
        Bmb5 C+4+9    C#mb5  F#  G
I would tear this old buil  ding down.

G                            C        G
Delilah was a woman, she was fine and fair,
G                         D          G
She had lovely looks, and coal black hair.
G                      C        G
Delilah she gained old Samson's mind.
G                                 D         G
When first he saw this woman, she looked so fine.
G                         C        G
Delilah she climbed up on Samson's knee,
G                                       D       G
Said, "Tell me where your strength lies if you please."
G                                     C         G
And She spoke so kind, God knows, she talked so fair,
G                              D      G
Samson said, "Delilah, you cut off my hair.
        G              C           G
You can shave my head, clean as my hand
G                             D       G
My strength come's natural as any old man.

G    C      G      G
If I had my way,
G           D     G
If I had my way,
G                 C
If I had my way,

I would tear this old building down."

You read about Samson, all from his birth,
He was the strongest man that ever had lived on earth.
One day when Samson was walking along,
Looked down on the ground, he saw an old jawbone.
He stretched out his arm, God knows, chains broke like thread,
When he got to moving, ten thousand was dead.

Common riff:
  G                               C          G
E----------13-----------------------------------------------|
B----15-------15-----13--15p13-------13--15p13--12----------|
G-------------------------------15--------------------------|
D-----------------------------------------------------------|
A-----------------------------------------------------------|
E-----------------------------------------------------------|
     G                               D       G
E----------13-----------------------------------------------|
B----15-------15-----13--15p13------------------------------|
G-------------------------------15-----------12-------------|
D------------------------------------15--12-----------------|
A-----------------------------------------------------------|
E-----------------------------------------------------------|

Solo Culmination:
E-------15p13------15-----15p13------15---------------------|
B---15---------15----------------15-------------------------|
G-----------------------------------------------------------|
D-----------------------------------------------------------|
A-----------------------------------------------------------|
E-----------------------------------------------------------|

E---19--15--------------------------------------------------|
B-----------13^15\13------------------------13^15\13--------|
G---------------------15--12-------12-----------------12----|
D-----------------------------15-------12-------------------|
A-----------------------------------------------------------|
E-----------------------------------------------------------|

Common Solo Culmination

Now Samson and the lion, they got in attack,
Samson he crawled up on the lion's back.
You read about this lion, he killed a man with his paws,
Samson got his hands up around that lion's jaws.
And he ripped that beast, God knows he killed him dead.
And the bees made honey in the lion's head.
comments
print report bad tab
I want to post or [tab]
guest
You may want to rate the tab now too:
select rating
Please do not post tabs as comments. Select "correction" instead!