Oops, an error
Loading. Please wait.

Scarlet Begonias Tab

version 1
version 1

Solo

Whole song

Interactive

13,929 views 21 this week
1 commentread comment
1 2 3 4 5
x 8
add to favorites
launch autoscroll
font size
0
reset
how to read this tab
guitar tuner
×
Best way to learn
"Scarlet Begonias"
Autoscroll
slow
fast
+/-
esc
set tempo
stop
Author
Difficulty
  follow
intermediate
You need to listen to the actual song to get the Harmonics and timing right, but here 
the notes... err.. fret numbers.


Scarlet Begonias, (solo) – The Grateful Dead

  2:37
e|-------------------------------------------------|
B|-16h17---17-17-17---17-17-17------19p17-16-17-19-|
G|-------------------------------------------------|
D|-------------------------------------------------|
A|-------------------------------------------------|
E|-------------------------------------------------|
  2:42
e|-17p16—17p16-------------------------------------|
B|------------h17--17----17--17--19p17p16h17h19----|
G|-------------------------------------------------|
D|-------------------------------------------------|
A|-------------------------------------------------|
E|-------------------------------------------------|
  2:48
e|-------------------------------------------------|
B|----------15-17-15-14--17-17--16--19-p17p16\14---|
G|-14-16-18----------------------------------------|
D|-------------------------------------------------|
A|-------------------------------------------------|
E|-------------------------------------------------|
  2:51
e|-------------------------------------------------|
B|-16-14-------------------------17----------------|
G|-------16-13h14-16-14-13h14-16-------13-14-14h16-|
D|-------------------------------------------------|
A|-------------------------------------------------|
E|-------------------------------------------------|
  2:55
e|-------------------------------------------------|
B|-17-17--19p17--14-16---14-14b16---14-------------|
G|-------------------------------------16-14-16----|
D|-------------------------------------------------|
A|-------------------------------------------------|
E|-------------------------------------------------|
  2:59
e|-------------------------------------------------|
B|-------------------------------------------------|
G|-16p14-13-11----11-------------------------------|
D|-------------------14-13-11--13p11---------------|
A|-----------------------------------14-12p11-9----|
E|----------------------------------------------12-|

That's it! This solo tab is nowhere on the internet, and I will guarantee you this is 
correct to the way Jerry Garcia played it.
Suggest correction
comments
print report bad tab
1 comment total.
0 reply
spagnon7 10 Feb 10, 2014 04:49 PM

thanks man!

guest
You may want to rate the tab now too:
select rating
Wanna post a correction for this tab? Suggest correction