Oops, an error
Loading. Please wait.

Scarlet Begonias Tab

version 2
version 2

Whole song

Interactive

40,692 views 156 this week
1 commentread comment
1 2 3 4 5
excellent!
x 14
add to favorites
launch autoscroll
font size
0
reset
how to read this tab
guitar tuner
Autoscroll
slow
fast
+/-
esc
set tempo
stop
Help us to improve Ultimate-Guitar.com Take our survey!
×
Contributor

INTRO

E-----7-------------------------------------------------|
B------------------------7-----5----4---5-7---9---9h10--|
G---------9p8------8----------------4-------------------|
D-9-------------9--------------6--------6-9---9---9h11--|
A-------------------------------------------------------|
E-------------------------------------------------------|

Verse Part
E--------------------------|
B--------------------------|
G--------------------------|
D---------------------6--7-|
A----6h7p6-----9-----------|
E--7-----------------------|

Bridge
           E                        F#
E---------------------------------------------------------------------|
B---------------------------------------------------------------------|
G---------------------------------------------------------------------|
D--------------------------------2-----------------------4------------|
A-----------------------2-2--4------------------4-4--6----------------|
E------------0----2--4----------------2---4--6------------------------|


    A                     B
E ---------------------------------------------------------------------|
B ---------------------------------------------------------------12-10-|
G ---------------------------------------------------------11-11-------|
D --------------------7----------------------9----9--11--13------------|
A ------------7-7--9-----------------9-9--11---------------------------|
E --5---7--9--------------7---9--11------------------------------------|



  E                                         B    A
As I was walkin' 'round Grosvenor Square

      E                                          B   A
Not a chill to the winter but a nip to the air,
A                E  B     A                  E
From the other direction, she was calling my eye,
A                E B     A                   E                  B
It could be an illusion, but I might as well try, might as well try.

She had rings on her fingers and bells on her shoes.
And I knew without askin' she was into the blues.
She wore scarlet begonias tucked into her curls,
I knew right away she was not like other girls, other girls.

In the thick of the evening when the dealing got rough,
She was too pat to open and too cool to bluff.
As I picked up my matches and was closing the door,
I had one of those flashes I'd been there before, been there before.

        F#
Well, I ain't often right but I've never been wrong.
B                           A         E
Seldom turns out the way it does in a song.
F#m
Once in a while you get shown the light
       B                          A          E
In the strangest of places if you look at it right.

Bridge Riff

Well there ain't nothing wrong with the way she moves,
Scarlet begonias or a touch of the blues.
And there's nothing wrong with the look that's in her eyes,
I had to learn the hard way to let her pass by, let her pass by

The wind in the willow's playin' "Tea for Two";
The sky was yellow and the sun was blue,
Strangers stoppin' strangers just to shake their hand,
Everybody's playin’ in the heart of gold band, heart of gold band.


OUTRO

E--------------------------------------------------------|
B--------------------------------------------------------|
G----------------------6----------6---9---8--8-----------|
D----------9--7-----7-----9----7----------------9---7----|
A-----6h9--------9-------------------------------------9-|
E--7-----------------------------------------------------|
comments
print report bad tab
1 comment total.
0 reply
AnrBjotk 194 wrote on May 21 2016, 12:18 pm

Absolutely perfect. I'm no expert, but in terms of noodling on the guitar and make it sound like the record: 10/10.

I want to post or [tab]
guest
You may want to rate the tab now too:
select rating
Please do not post tabs as comments. Select "correction" instead!