Oops, an error
Loading. Please wait.

Scarlet Begonias Bass Tab

version 3
version 3

Whole song

Interactive

3,138 views 30 this week
no commentswrite comment
1 2 3 4 5
please rate
add to favorites
launch autoscroll
font size
0
reset
guitar tuner
Autoscroll
slow
fast
+/-
esc
set tempo
stop
Help us to improve Ultimate-Guitar.com Take our survey!
×
Author
Difficulty
intermediate
Grateful Dead
Scarelt Bagonias

Intro
g-------|------9P8----------------------------------|
d-----9-|---9------9-----------9-----------6-7------|
a-------|--------------99-7-------6h7p6-9-9-9-------|
E---7---|-7------------------7----------------------|
B-0-----|-------------------------------------------|

Riff 1
g------------9-11/13--14-13----------------------------------|
d-----------9---------------14-----------9------------6--7---|
a--6-7-9/11--------------------16-13--------6h7p6-9--9--9----|
E--------------------------------------7---------------------|
B------------------------------------------------------------|
   As I was walking...
Riff 2
g------7-8-9------------------------------------|
d------------9--7-6--------9----------6-7p6-----|
a----7--------------9-7------6h7p6-9-9-9----7---|
E-(0)--------------------7--------------------9-|
B--5--------------------------------------------|
 Not a Chill...
Riff 3
g-----7-8-9---------------9---9-----7-8-9----------------------|
d------------9-7----------------7-9------9-7-------------------|
a-------------------5-6-7---7------------------5-6-7-----------|
E--5------------5-7---------------------------7--------5-6-7---|
B----------------------------------------------------7---------|
  From the other direction...
Fill (into Riff 1)
g--------9-7-6----------9--11/13-14-13---------------------------|
d------9-------7------9-----------------14-12-=------------------|
a-9/11-----------9/11--------------------------14-12-11----------|
E--------------------------------------------------------12------|
B-----------------------------------------------------------0----|
Repeat Riffs 1-3 (with random fill after 2 times)
Riff 4
g----------------------------------------------------------------|
d--------------2-------------4-------------5----------------7----|
a--------2-2-4---------4--4-6--------7-7-9----------9---7-9------|
E--0-2/4--4------2-4/6---6-----5-7/9--9------7-9/11---11---------|
B----------------------------------------------------------------|
  Once in a While...

Hold B into
Riffs 1-3

Outro
g-----------------6-----6-9-8------------------|
d---------9-7---7---9-7-------9-6-6-7----------|
a-----6-9-----9----------------------9---------|
E---7------------------------------------------|
B----------------------------------------------|


Remember to Jam out, but timing is key and sometimes less is more. This is how I play it 
with my band. Let me know if you have any questions. I did this at work without a bass 
in my hands. Peace Kyle
Suggest correction new What's this?
You can suggest a correction to this tab. Community and Mods will review your correction and vote to approve or reject it.
comments
We did not receive enough feedback on this tab! Please rate:
print report bad tab
1 2 3 4 5
guest
You may want to rate the tab now too:
select rating
Please do not post tabs as comments. Select "correction" instead!