Oops, an error
Loading. Please wait.

Shakedown Street Bass Tab

version 1
version 1

Whole song

Interactive

10,703 views 24 this week
no commentswrite comment
1 2 3 4 5
x 4
add to favorites
launch autoscroll
font size
0
reset
guitar tuner
Autoscroll
slow
fast
+/-
esc
set tempo
stop
Help us to improve Ultimate-Guitar.com Take our survey!
×
Author
Difficulty
novice
grateful dead - shakedown street

tuneing G,D,A,E


  intro						main verse
|--------------------------------------------------------5--7----------|
|-------------------------------------------------7-10-7------5h7-5h7--|
|-5-------------------5--------------------5--5------------------------|
|----------------------------------------------------------------------|


verse 2 - maybe because its midnight
|------------------------------------------------------------------|
|-------7---------------7--------------7------------------------12-|
|----------------------------------------------7-----55-555-5-5----|
|7---------------7--------------7----------------------------------|


                              chorus - nothins shakin
|------------------------------------3--5------------|
|------------------------------5-8-5------3h5-3h5----|
|-5---------3-----------3--3-------------------------|
|-----------------5/8--------------------------------|
Suggest correction
comments
print report bad tab
guest
You may want to rate the tab now too:
select rating
Wanna post a correction for this tab? Suggest correction