Oops, an error
Loading. Please wait.

Shakedown Street Tab

version 2
version 2

Whole song

Interactive

23,452 views 90 this week
1 commentread comment
1 2 3 4 5
excellent!
x 14
add to favorites
launch autoscroll
font size
0
reset
how to read this tab
guitar tuner
Autoscroll
slow
fast
+/-
esc
set tempo
stop
Help us to improve Ultimate-Guitar.com Take our survey!
×
Author
Difficulty
novice
Shakedown Street - Grateful Dead


Jerry Pre-song Intro
(Live versions, muted a bit, use a wah pedal)

|---1---1-1---1-1---1-1---1-1---1-1---1-1---1-1---|
|---3---3-3---3-3---3-3---3-3---3-3---3-3---3-3---|
|---2---2-2---2-2---2-2---2-2---2-2---2-2---2-2---|
|-------------------------------------------------|
|-------------------------------------------------|
|-------------------------------------------------| repeat again


Jerry Intro

|---1---------------------1--------5-3----3---------------------|
|---3---------------------3------------6----6-5--6-5-3--5-3-----|
|---2---------------------2---------------------------------5---|
|---0---------------------0-------------------------------------|
|---------------------------------------------------------------|
|---------------------------------------------------------------|

Bobby Intro
(Excessive Wah pedal)
|---10--------------------10------------------------------------|
|---10--------------------10------------------------------------|
|---10--------------------10------------------------------------|
|---------------------------------------------------------------|
|---------------------------------------------------------------|
|---------------------------------------------------------------|


Jerry Main Riff

|-------------1-1--1------------------5---|
|-------------3-3--3----------------------|
|-------------2-2--2------------------2---|
|---3--2--0-----------3--3--2-2--0--------|
|-----------------------------------------|
|-----------------------------------------| Repeat two more times

Bobby Main Riff
(Wah pedal)
|-----13-13---13-13-13-13----13-13----17-17-17-17---|
|---------------------------------------------------|
|-----10-10---10-10-10-10----10-10----14-14-14-14---|
|---------------------------------------------------|
|---------------------------------------------------|
|---------------------------------------------------|

Jerry Main Riff -> First Verse Riff

|-------------1-1--1----------------------------|
|-------------3-3--3----------------------------|
|-------------2-2--2----------------------0h2---|
|---3--2--0-----------3--3--2-2--0h2h3---3------|
|-----------------------------------------------|
|-----------------------------------------------|


Jerry First Verse Riff

|---3----------------3-----1--------3---|
|---3----------------5-----1--------3---|
|---4----------------5-----2--------3---|
|---5----------------5-----3--------2---|
|--------------------3------------------|
|---------------------------------------|
    Don't Tell me...

Bobby First Verse Riff
(Wah pedal)
|---10---------------12----13-------15--|
|---12---------------13----14-------15--|
|---12---------------12----14-------15--|
|---------------------------------------|
|---------------------------------------|
|---------------------------------------|


Jerry Second Verse Riff

|--------8----8--8---8----------8----8--8---8----|
|--------10---10-10--10---------10---10-10--10---|
|--------9----9--9---9----------9----9--9---9----|
|--------10---10-10--10---------10---10-10--10---|
|---7-8--8----8--8---8----------8----8--8---8----|
|------------------------------------------------|
         Maybe that's cause....

|--------7----7--7---7----------7----7--7---7----|
|--------8----8--8---8----------8----8--8---8----|
|--------7----7--7---7----------7----7--7---7----|
|--------9----9--9---9----------9----9--9---9----|
|---8-7--7----7--7---7----------7----7--7---7----|
|------------------------------------------------|

|--------8----8--8---8----------8----8--8---8----|
|--------10---10-10--10---------10---10-10--10---|
|--------9----9--9---9----------9----9--9---9----|
|--------10---10-10--10---------10---10-10--10---|
|---7-8--8----8--8---8----------8----8--8---8----|
|------------------------------------------------|

|--------7----7--7---7----------7-7--7------------|
|--------8----8--8---8----------8-8--8------------|
|--------7----7--7---7----------7-7--7------------|
|--------9----9--9---9----------9-9--9------------|
|---8-7--7----7--7---7----------7-7--7--7--6--5---|
|-------------------------------------------------|

|---5----5--5---5--------5-5--5------------|
|---6----6--6---6--------6-6--6------------|
|---5----5--5---5--------5-5--5------------|
|---7----7--7---7--------7-7--7--7--8--9---|
|---5----5--5---5--------5-5--5------------|
|------------------------------------------|

|---7----7--7---7--------------------------|
|---8----8--8---8------------5-3-----------|
|---7----7--7---7----------4-----5-4-------|
|---9----9--9---9-------/5-----------7-5---|
|------------------------------------------|
|------------------------------------------|

Bobby Second Verse Riff
(Wah pedal)

|---12----12---12-12-12-------12--12----12-12-12---|
|---13----13---13-13-13-------13--13----13-13-13---|
|---14----14---14-14-14-------14--14----14-14-14---|
|--------------------------------------------------|
|--------------------------------------------------|
|--------------------------------------------------|

|---15----15---15-15-15-------15--15----15-15-15---|
|---17----17---17-17-17-------17--17----17-17-17---|
|---16----16---16-16-16-------16--16----16-16-16---|
|--------------------------------------------------|
|--------------------------------------------------|
|--------------------------------------------------|

|---12----12---12-12-12-------12--12----12-12-12---|
|---13----13---13-13-13-------13--13----13-13-13---|
|---14----14---14-14-14-------14--14----14-14-14---|
|--------------------------------------------------|
|--------------------------------------------------|
|--------------------------------------------------|

|---15----15---15-15-15-------15--15----15-15-15--14---|
|---17----17---17-17-17-------17--17----17-17-17--16---|
|---16----16---16-16-16-------16--16----16-16-16--15---|
|------------------------------------------------------|
|------------------------------------------------------|
|------------------------------------------------------|

|---13-----13--13-----13-13--13--13---13-13---|
|---15-----15--15-----15-15--15--15---15-15---|
|---14-----14--14-----14-14--14--14---14-14---|
|---------------------------------------------|
|---------------------------------------------|
|---------------------------------------------|

|---10---10-10--10-----10-10--10--10--10--10--10---|
|---12---12-12--12-----12-12--12--12--12--12--12---|
|---12---12-12--12-----12-12--12--12--12--12--12---|
|--------------------------------------------------|
|--------------------------------------------------|
|--------------------------------------------------|


Jerry Third Verse Riff

|-----------------------------------------------|
|------------------------------------------8b---|
|-----------------------10---9--10---10-9--8b---|
|-----------------------8----8--8----8--8-------|
|-----------------------10---10-10---10-10------|
|-----------------------------------------------|
 ...On Shakedown Street

|------------------------------------------------|
|-------------------------------------------8b---|
|------------10---9-10---10-10-9-9-10-10--9-8b---|
|------------8----8-8----8--8--8-8-8--8---8------|
|------------------------------------------------|
|------------------------------------------------|
 ...Heart of Town

|---------------------------------------|
|---------------------------------------|
|---------------------------------------|
|---------------------------------------|
|----------------8--7---8--8---7-7--8---|
|---------------------------------------|
 ...Got no heart

|---8---8-8--8------11-11---11---11---11---11---11---------|
|---8---8-8--8------12-12---12---12---12---12---12---------|
|-------------------10-10---10---10---10---10---10---------|
|-----------------------------------------------------14---|
|----------------------------------------------------------|
|----------------------------------------------------------|
 ...Poke Around

Bobby Third Verse Riff
(Wah Pedal)

|--------------------------11b--x-x-x--11b---|
|--------------------------10b--x-x-x--10b---|
|--------------------------------------------|
|--------------------------------------------|
|--------------------------------------------|
|--------------------------------------------|
 ......On Shakedown Street

|----------------------------------------------------|
|----------------------------------------------8b----|
|------------10---10-10-8-10---10-10-8-10-8-10-10b---|
|----------------------------------------------------|
|----------------------------------------------------|
|----------------------------------------------------|
 ...Heart of Town

|----------------11b-----------------|
|----------------10b-------8--8h10---|
|------------------------------------|
|------------------------------------|
|------------------------------------|
|------------------------------------|
 ...Got no heart

|----------------------------------------------------12---|
|----------------------------------------------8b---------|
|------------10---10-10-8-10---10-10-8-10-8-10-10b---9----|
|---------------------------------------------------------|
|---------------------------------------------------------|
|---------------------------------------------------------|
 .......Poke Around


Outro

|--------------------------3---|
|--------------------------3---|
|----------------0--2------4---|
|--0--2--3----3------------5---|
|------------------------------|
|------------------------------|





Suggest correction
What's this?
You can suggest a correction to this tab. Community and Mods will review your correction and vote to approve or reject it.
comments
print report bad tab
1 comment total.
+2 reply
ripdime04 1,160 wrote on October 7 2009, 08:59 pm

good tab, but the tab is not really organized and hard to follow

guest
You may want to rate the tab now too:
select rating
Please do not post tabs as comments. Select "correction" instead!