Oops, an error
Loading. Please wait.

Ship Of Fools Tab

1,025 views 1 this week
no commentswrite comment
1 2 3 4 5
please rate
add to favorites
launch autoscroll
font size
0
reset
how to read this tab
guitar tuner
Autoscroll
slow
fast
+/-
esc
set tempo
stop
Help us to improve Ultimate-Guitar.com Take our survey!
×
Author
Difficulty
intermediate
Jerry Garcia Solo on Ship of Fools

        A#               F         Eb        Edim                 A#
e|----|-----------------|-------------------|--------------------|-------|
B|----|-----------------|-------------------|--------------------|-------|
G|----|-------15-15-----|-17b-17-17b-17r-15-|-17b-17-15----15-17b|-17bv--|
D|----|----15-------15--|-------------------|-----------17-------|-------|
A|-17b|-17r-------------|-------------------|--------------------|-------|
E|----|-----------------|-------------------|--------------------|-------|

         D      Eb         Dmin       Cmin             F            D#     A#          
e|-------------|---------------------|----------------|----|-------|-------------|
B|----18-------|---------------------|----------------|----|----16b|-16-18-16----|
G|-17b---17-17b|-17b17-15----15-15---|-15----17b17b17b|-17v|-17----|----------17b|
D|-------------|----------17-------17|----17----------|----|-------|-------------|
A|-------------|---------------------|----------------|----|-------|-------------|
E|-------------|---------------------|----------------|----|-------|-------------|

  Dmin                 Cmin          D#               A#             F      Eb
e|--------------------|-------------|----------------|--------------|--------------|
B|--------------------|-------------|-16-16-15-16-18-|--------------|--------------|
G|-17b-17b-17b-17b-17b|-17-15----15-|----------------|-17b-17-15-17b|-17-17b-17-15-|
D|--------------------|-------17----|----------------|--------------|--------------|
A|--------------------|-------------|----------------|--------------|--------------|
E|--------------------|-------------|----------------|--------------|--------------|

  A#                                    F         Eb           Edim
e|---------------------|---------------|----------------------|--------------------------|
B|-------------15-16-17|-18-15---------|----------------------|--------------------------|
G|-15-14-15-17---------|-------15------|----------------15-17b|-15-15----17b-17-15----17b|
D|---------------------|----------15---|-15-17-15-14-17-------|-------17-----------17----|
A|---------------------|-------------17|----------------------|--------------------------|
E|---------------------|---------------|----------------------|--------------------------|

  A#           D      Eb      Dmin    Cmin                  F
e|-------|-----------|-18------------|---------------------|--------------|
B|----18b|-18r-18-18b|----18b--------|-----------18--------|--------16-17-|
G|-17b---|-----------|--------17b-17-|-17-15-17b----17b-17b|-17v-17-------|
D|-------|-----------|---------------|---------------------|--------------|
A|-------|-----------|---------------|---------------------|--------------|
E|-------|-----------|---------------|---------------------|--------------|

                            D#       A#      Dmin            Cmin
e|-------------------|----------------|---------------|-------------|
B|-18-17-18-17-16----|----------------|-----18--------|-------------|
G|----------------17b|-17-15-15----17b|-17b----17b-17b|-17-15----15-|
D|-------------------|----------17----|---------------|-------17----|
A|-------------------|----------------|---------------|-------------|
E|-------------------|----------------|---------------|-------------|

  D#               A#              F       Eb       A#
e|----------------|---------------|----------------|----|
B|-16-16-15-16-18-|---------------|----------------|----|
G|----------------|-17b-17r-15-17b|-17-17b-17r-15--|-15-|
D|----------------|---------------|----------------|----|
A|----------------|---------------|----------------|----|
E|----------------|---------------|----------------|----|
Suggest correction
What's this?
You can suggest a correction to this tab. Community and Mods will review your correction and vote to approve or reject it.
comments
We did not receive enough feedback on this tab! Please rate:
print report bad tab
1 2 3 4 5
guest
You may want to rate the tab now too:
select rating
Please do not post tabs as comments. Select "correction" instead!