Oops, an error
Loading. Please wait.

Touch Of Grey Tab

version 2
version 2

Solo

Whole song

Interactive

8,480 views 9 this week
no commentswrite comment
1 2 3 4 5
accurate
x 3
add to favorites
launch autoscroll
font size
0
reset
how to read this tab
guitar tuner
Autoscroll
slow
fast
+/-
esc
set tempo
stop
Help us to improve Ultimate-Guitar.com Take our survey!
×
Author
I didn't tab this out, but I found it, and it sound real accurate, heres a video guide 
help you if your stuck: http://www.youtube.com/watch?v=1OWTQI8Af9M&feature=related

Line 1:
E|--7-----------7------6-----6--9--7--|
B|-----7-----7------------7-----------|
G|--------8---------------------------|
D|------------------------------------|
A|------------------------------------|
E|------------------------------------|

Line 2:
E|--------------------------------------------|
B|----------9------------9--10--9--10--12--9--|
G|-------9-----9------------------------------|
D|--7/9-----------9---------------------------|
A|--------------------------------------------|
E|--------------------------------------------|

Line 3:
E|--------------------14--11--------------------------14--11--|
B|------------11--14----------12----------11------14----------|
G|--------11----------------------11----------11--------------|
D|--9/11------------------------------------------------------|
A|------------------------------------------------------------|
E|------------------------------------------------------------|

Line 4:
E|---------12------12--11--12--14p13p12p11--12----------------11--|
B|------------------------------------------------14--12--14------|
G|--11/13---------------------------------------------------------|
D|----------------------------------------------------------------|
A|----------------------------------------------------------------|
E|----------------------------------------------------------------|

Line 5:
E|--11----------11------------------------------|
B|------14--12------14--12--11------11--14--12--|
G|------------------------------11--------------|
D|----------------------------------------------|
A|----------------------------------------------|
E|----------------------------------------------|

Line 6:
E|----------------------------------------|
B|----------9--------9--10--9--10--12--9--|
G|-------9-----9--------------------------|
D|--7/9-----------9-----------------------|
A|----------------------------------------|
E|----------------------------------------|

Line 7:
E|--------------------14--11----------------------14--11--|
B|------------11--14----------12------11------14----------|
G|--------11----------------------11------11--------------|
D|--9/11--------------------------------------------------|
A|--------------------------------------------------------|
E|--------------------------------------------------------|

Line 8:
E|---------12----------14---------16------16-----|
B|-----------------------------------------------|
G|--11/13------13/14-------14/16------16---------|
D|-----------------------------------------------|
A|-----------------------------------------------|
E|-----------------------------------------------|

Line 9:
E|----------------------------------------11----------11--12--|
B|--11------11--12--14----12--11--12--14------12--14----------|
G|------11----------------------------------------------------|
D|------------------------------------------------------------|
A|------------------------------------------------------------|
E|------------------------------------------------------------|

Line 10:
E|--12--11-----------------|
B|----------14--12--11-----|
G|-------------------------|
D|-------------------------|
A|-------------------------|
E|-------------------------|

Line 11:
E|----------------------------------------11----------11--12--|
B|--11------11--12--14----12--11--12--14------12--14----------|
G|------11----------------------------------------------------|
D|------------------------------------------------------------|
A|------------------------------------------------------------|
E|------------------------------------------------------------|

Line 12:
E|--12--11------------------------------------------------------11----------|
B|----------14--12--11----11------11--12--14----12--11--12--14------14--12--|
G|----------------------------11--------------------------------------------|
D|--------------------------------------------------------------------------|
A|--------------------------------------------------------------------------|
E|--------------------------------------------------------------------------|

Line 13:
E|--------------------------------------------------------------------------|
B|--14----------14--12----------12\11-------------11--12--11----------------|
G|------14--------------13--------------11--------------------13--11\9------|
D|----------14--------------14--------------11------------------------------|
A|--------------------------------------------------------------------------|
E|--------------------------------------------------------------------------|

Line 14:
E|---------------------------------------|
B|-----9-----------9---10--9--10--12--9--|
G|--------9-----9------------------------|
D|-----------9---------------------------|
A|---------------------------------------|
E|---------------------------------------|

Line 15:
E|---------------------------------------------------|
B|----------11--------------11---12--11--12--14--11--|
G|-------11-----11------11---------------------------|
D|--9/11------------11-------------------------------|
A|---------------------------------------------------|
E|---------------------------------------------------|
Suggest correction
What's this?
You can suggest a correction to this tab. Community and Mods will review your correction and vote to approve or reject it.
comments
We did not receive enough feedback on this tab! Please rate:
print report bad tab
1 2 3 4 5
guest
You may want to rate the tab now too:
select rating
Please do not post tabs as comments. Select "correction" instead!