Oops, an error
Loading. Please wait.

Touch Of Grey Bass Tab

version 2
version 2

Whole song

Interactive

6,006 views 30 this week
no commentswrite comment
1 2 3 4 5
excellent!
x 4
add to favorites
launch autoscroll
font size
0
reset
guitar tuner
Autoscroll
slow
fast
+/-
esc
set tempo
stop
Help us to improve Ultimate-Guitar.com Take our survey!
×
Author
Difficulty
intermediate
Grateful Dead   
Touch of Grey
By: Tim Alley
hokies2000@gmail.com

This is how I've learned to play it, though I know it's not 100% accurate (but 
it's better than anything I've found so far!).  Enjoy.


Intro (play twice)                                    Add to end of 2nd time
G|----------------------------------------------------|---|
D|--7------------7------------9------------9----------|---|
A|-----7--7-7-------7--7-7-------9--9-9-------9--9-9--|-9-|
E|----------------------------------------------------|---|


Verse (play 2x)
G|------------------------------------------------------------|
D|-----------------------------------9-9---7--7---------------|
A|--------------9---9---------7--9-7-----9-------6-7-6-7-8-9--|
E|--7---7-7---7-------7-7-9-7---------------------------------|

                                    1st time thru
G|----------9-11--11---------------|-----------------------|
D|----9-11------------9-11-9---9---|-----------------------|
A|--9------------------------9---7-|-7-----7--7--7-9--9-7--|
E|---------------------------------|---7h9-----------------|

  2nd time thru (going into chorus)
G|---------------------|
D|---------------------|
A|-7-----7--7-----6h7--|
E|---7h9------7h9------|


Chorus
G|-------------------------------------------------------|
D|-------------------------------------------------------|
A|--9---9-9------------------7---7-----7---7--7-----6h7--|
E|----------5-6--7---7-7--7--------7h9----------7h9------|

G|-------------------------------------------------------|
D|-------------------------------------------------------|
A|--9---9-9------------------7---7-----7---7--7-----6h7--|
E|----------5-6--7---7-7--7--------7h9----------7h9------|

G|-----------------------------------------------------|
D|---------------------------------------------9h11p9--|
A|--9---9-9------------------------7---7-9---9---------|
E|----------5-6--7---7-7--7--5---5---------------------|  Back to intro

Bridge
G|------------------------------------------------------------------|
D|--9-10-11---11-----9-10-11---11---11-9----------------------------|
A|-----------------9---------------------11-9---9------7--9---9--9--|
E|-------------------------------------------------7h9--------------|

G|----------------------------------------------------------------------|
D|--9-10-11---11-----9-10-11---11---11-9--------------------------------|
A|-----------------9---------------------11-9---9------7--9---9-------9-|
E|-------------------------------------------------7h9----------11-12---|

G|-----------------------------------------------------------|
D|-----------------------------------------------------------|
A|--11---11--11-11---------------------------6-7-9---9----9--|
E|------------------11---11--11-11--9---9--0------------9----|

G|-------------------------------------------------------|
D|-------------------------------------------------------|
A|------------6--7---7-7-6-7-8-9---9-9---9--9---9-9---9--|
E|--7---7-7-9--------------------------9------------9----|
Suggest correction
What's this?
You can suggest a correction to this tab. Community and Mods will review your correction and vote to approve or reject it.
comments
print report bad tab
guest
You may want to rate the tab now too:
select rating
Please do not post tabs as comments. Select "correction" instead!