Oops, an error
Loading. Please wait.

Abandoned By Heaven Bass Tab

159 views 1 this week
no commentswrite comment
1 2 3 4 5
please rate
add to favorites
launch autoscroll
font size
0
reset
guitar tuner
Tab Pro tools
  • play this tab
  • loop segment
  • change instrument
  • show fretboard
  • metronome
×
Best way to learn
"Abandoned By Heaven"
Autoscroll
slow
fast
+/-
esc
set tempo
stop
Contributor
Tab by: 6METAL6BASSIST6
Email: Petergriffinav@gmail.com

G|-------------------------|
D|-------------------------|
A|-------------------------|
D|9-----4-----7-----5-----7|

G|------------------------|
D|------------------------| x4
A|------------------------|
D|9X32-4X32-7X32-5X16-7X16|

G|-----------------|
D|-----------------| x2
A|-----------------|
D|5-4-2-----5-----9|

G|-----------------|
D|-----------------|
A|-----------------|
D|5-4-2-----0-----4|

G|-------------------|
D|-------------------| x4
A|----------7X32-5X32|
D|9X32-7X32----------|

2:49

G|-----------------------------------------------|
D|--9---9---9---9---9---9---9---9---9---9---9---9|
A|-----------------------------------------------|
D|9---9---9---9---9---9---9---9---9---9---9---9--|

G|---------------------------------------|
D|--11---11---11---11---11---11---11---11|
A|---------------------------------------|
D|9----9----9----9----9----9----9----9---|

G|--9---9---9---9---11---11---11---11---11---11---11---11|
D|-------------------------------------------------------|
A|-------------------------------------------------------|
D|9---9---9---9---9----9----9----9----9----9----9----9---|

G|------------------------------------------|
D|------------------------------------------| x2
A|------------------------------------------|
D|9--------5--------2--------4--------5----7|

G|------------------------|
D|------------------------| x4
A|------------------------|
D|9X32-4X32-7X32-5X16-7X16|

G|-----------------|
D|-----------------| x2
A|-----------------|
D|5-4-2-----5-----9|

G|-----------------|
D|-----------------|
A|-----------------|
D|5-4-2-----0-----4|

Play this last part until the end.

G|-------------------|
D|-------------------|
A|----------7X32-5X32|
D|9X32-7X32----------|
comments
We did not receive enough feedback on this tab! Please rate:
print report bad tab
1 2 3 4 5
I want to post or [tab]
guest
You may want to rate the tab now too:
select rating
Please do not post tabs as comments. Select "correction" instead!