Oops, an error
Loading. Please wait.

If I Ever See You Again chords

version 1
version 1

Whole song

Video

73 views 3 this week
no commentswrite comment
1 2 3 4 5
2 more votes to show rating
add to favorites
×
Save as Personal and add changes to this tab that will be seen only by you. Learn more ›
×
You can save this tab as Personal to edit and correct it or add notes. All changes will be seen only by you. Learn more »
launch autoscroll
font size
0
reset
transpose
0
reset
simplify chords
display chords
guitar tuner
edit
Autoscroll
slow
fast
+/-
esc
set tempo
stop
Strumming
There is no strumming pattern for this song yet. and get +5 IQ
Chords:
D:  x-7-5-x-x-x
D/B:7-5-7-x-x-x
F#: 2-4-x-x-x-x
G:  3-5-x-x-x-x
A:  5-7-x-x-x-x
E#  x-7-9-x-x-x

[Intro]

D#|-----------------0-0--|
A#|--3---3-3-3-3-3--5-7--|
F#|----------------------|   play twice before
C#|----------------------|   rythym guitar comes in
G#|----------------------|
D#|----------------------|

D#|---------------0-0-|---------------0-0-|--------------0-0-|------------------|
A#|-3--3-3-3-3-3--5-7-|-3--3-3-3-3-3--5-7-|-2--2-2-2-2-2-3-5-|-8-7---8-7--------|
F#|-------------------|-------------------|------------------|-----7-----7------|
C#|-------------------|-------------------|------------------|------------------|
G#|-------------------|-------------------|------------------|------------------|
D#|-------------------|-------------------|------------------|------------------|

D | D/B | F# | G A |

[Verse]
D                      D/B
Placed a stone on the pedal and jumped
F#                    G   A
with me bound in the backseat
D                  D/B
Barely standing but I better run
F#                       G   A
We were high, now we’re crashing
D                    D/B
I’m an optimist, or whatever you want
F#                G    A
Put me back in a labyrinth
      D                   D/B
I’m a masochist, or your usual haunt
F#                      G    A
Bring the pain, I don’t mind it
E                       G      A
Bring the pain, I don't mind it

[Chorus]
D     D/B              F#               G      A
If I ever see you again, I’d ask for my time back
D        D/B                F#                G   A
And if I ever see you again, I’d want you to know that
D      D/B
I was alone adrift
F#                  G    A
Now I can’t be more over it
D     D/B              F#                G    A
If I ever see you again, I’d ask for my time back

[Post-Chorus]
D      D/B   F#   G A
   Hey! Hey!

[Verse]
D                  D/B
Used to joke in an old Irish brogue
F#                       G  A
Now it’s played out and faded
D                  D/B
In the middle of Rittenhouse broke
F#                G A
Burnt orange and jaded
        D              D/B
I’m a pessimist, never be what you want
F#               G   A
Lost again in a labyrinth
      D                   D/B
I’m a masochist, or your usual haunt
F#                      G    A
Bring the pain, I don’t mind it
E                       G      A
Bring the pain, I don't mind it


[Chorus]
D     D/B              F#               G      A
If I ever see you again, I’d ask for my time back
D        D/B                F#                G   A
And if I ever see you again, I’d want you to know that
D      D/B
I was alone adrift
F#                  G    A
Now I can’t be more over it
D     D/B              F#                G    A
If I ever see you again, I’d ask for my time back


[Bridge]
G
I’ll never let anyone in
B
Guilt stringing me along
G                           A
You left me to bargaining; it’s all you wanted


[Solo]

rythym plays this twice: D | D/B | F# | G A |


(The first measure is a lead in,as in the A bridge is still playing,
The "solo" starts   HERE)
                      V
D#|-------------------|-------------------|------------------|----------------|-------------|
A#|-------------------|-------------------|------------------|--------12--14--|-15----------|
F#|-----------11--12--|-14--------14------|-14--12--11--11---|-14--14---------|-------14----|
C#|-11-12--14---------|-------------------|------------------|----------------|-------------|
G#|-------------------|-------------------|------------------|----------------|-------------|
D#|-------------------|-------------------|------------------|----------------|-------------|

D#|14/17-14--------17-14------|17-14-------17b19--|--14-14-15-14-----|----------------|
A#|---------15-----------15---|------15-----------|------------------|--15b17-15------|
F#|------------14-----------14|---------15--------|------------------|----------------|
C#|---------------------------|-------------------|------------------|----------------|
G#|---------------------------|-------------------|------------------|----------------|
D#|---------------------------|-------------------|------------------|----------------|


[Chorus]
D     D/B              F#               G      A
If I ever see you again, I’d ask for my time back
D        D/B                F#                G   A
And if I ever see you again, I’d want you to know that
D     D/B              F#               G      A
If I ever see you again, I’d ask for my time back
D        D/B                F#                G   A
And if I ever see you again, I’d want you to know that
D      D/B
I was alone adrift
F#                  G    A
Now I can’t be more over it
D     D/B              F#                G    A
If I ever see you again, I’d ask for my time back


[Outro]
D     D/B
  Hey!   Hey!
F#             G     A
I'd ask for my time back
D     D/B   F#   G  A
  Hey! Hey!

            
            
Suggest correction
Creating personal tab
Creating personal tab
You can edit any tab online and save it as your Personal.

You can edit, replace or remove any tab part or add personal notes – all changes will be seen only by you.

Personal tabs can be accessed anytime from any device, even offline.
Learn more »
Give kudos to tab author, rate the tab!
1 2 3 4 5
comments
print report bad tab
guest
You may want to rate the tab now too:
select rating
Wanna post a correction for this tab? Suggest correction