Oops, an error
Loading. Please wait.

Home chords

version 2
version 2

Whole song

632 views 1 this week
1 commentread comment
1 2 3 4 5
1 last vote to show rating
add to favorites
×
Save as Personal and add changes to this tab that will be seen only by you. Learn more ›
×
You can save this tab as Personal to edit and correct it or add notes. All changes will be seen only by you. Learn more »
launch autoscroll
font size
0
reset
transpose
0
reset
display chords
guitar tuner
edit
Autoscroll
slow
fast
+/-
esc
set tempo
stop
Strumming
There is no strumming pattern for this song yet. and get +5 IQ
Great Nothern-Home

I saw the other chord tab for this and noticed some mistakes so
I'm gonna try to make a more accurate tab.


Chords:

      G   A   C   F   D   Dm    D#
   e -3---0---0---1---2---1-----1----6----|
   b -3---2---1---1---3---3-----3----8----|
   G -0---2---0---2---2---2-----3----8----|
   D -0---2---2---3---0---0-----3----8----|
   A -2---0---3---3-------------1----6----|
   E -3-----------1-----------------------|


Intro:

      G           A         C         G
   e -----------------------------------------------------------------------|
   b -0--------3--2------5--3------5--3-------------------------------------|
   G -----------------------------------------------------------------------|
   D -----------------------------------------------------------------------|
   A -------------0---------3-----------------------------------------------|
   E -3-------------------------------3-------------------------------------|

play that twice

Verse:
  G              A        C                    G
   Take all your medicine, it's gonna make you well
  G                             A
   You'll have to run till it's over
       C                      G
   I'm sure you'll be able to tell
          F         C
   You'll know it's over
           D
   For the rest of your life your gonna be high

Chorus:
  G     Dm   A#                          C
   Come home, it's something less than a holiday
         G       Dm
   when you come home
  A#                          C
   It's something less than a holiday
              D#          D          G
   They'll be sneaking up behind you again

Verse:
  G            A          C                    G
   Talk to the doctor, he said you're well for home
  G              A            C                 G
   Take all your medicine, be sure you're never alone
          F         C
   You'll know it's over
           D
   For the rest of your life you're gonna be high

Chorus:
  G     Dm   A#                          C
   Come home, it's something less than a holiday
          G      Dm   A#                          C
   When you come home, it's something less than a holiday
              D#          D            G
   They'll be sneaking up behind you again

Solo:

      G       A            C          G        G         A          C
   
   e -----------------------------------------------------------------------|
   b -8-------8/10--5------8---8/10---8--------8---10----12---14----13------|
   G -----------------------------------------------------------------------|
   D -----------------------------------------------------------------------|
   A -----------------------------------------------------------------------|
   E -----------------------------------------------------------------------|

      G     F     C               D
   e -----------------------------------------------------------------------|
   b -12----10----5----5b6r5b6r5-----\3-------------------------------------|
   G -----------------------------------------------------------------------|
   D -----------------------------------------------------------------------|
   A -----------------------------------------------------------------------|
   E -----------------------------------------------------------------------|


Chorus:

  G     Dm   A#                          C
   Come home, it's something less than a holiday
          G      Dm   A#                          C
   When you come home, it's something less than a holiday
          G      Dm   A#                          C
   When you come home, it's something less than a holiday
          G      Dm   A#                          C
   When you come home, it's something less than a holiday
          G      Dm   A#                          C
   When you come home, it's something less than a holiday
          G
   When you...


Key:

   b-bend
   r-release
   /-slide up
   \-slide down


Finished

            
            
Suggest correction
Creating personal tab
Creating personal tab
You can edit any tab online and save it as your Personal.

You can edit, replace or remove any tab part or add personal notes – all changes will be seen only by you.

Personal tabs can be accessed anytime from any device, even offline.
Learn more »
Give kudos to tab author, rate the tab!
1 2 3 4 5
comments
print report bad tab
1 comment total.
0 reply
Carlsbob 10 Jan 01, 2010 04:25 PM

Thanks for the D# (Eb)! I was working on the song and just couldn't figure out that chord (on a ukulele). Sounds great

guest
You may want to rate the tab now too:
select rating
Wanna post a correction for this tab? Suggest correction