Oops, an error
Loading. Please wait.

Once Bitten Twice Shy Bass Tab

version 1
version 1

Whole song

Interactive

7,998 views 3 this week
1 commentread comment
1 2 3 4 5
excellent!
x 6
add to favorites
launch autoscroll
font size
0
reset
guitar tuner
Tab Pro tools
  • play this tab
  • loop segment
  • change instrument
  • show fretboard
  • metronome
×
Best way to learn
"Once Bitten Twice Shy"
Autoscroll
slow
fast
+/-
esc
set tempo
stop
Contributor
Difficulty
novice
Intro/Verse  (bass doesn't come in untill 2:04)
G------------------------------------------------------------------|
D-------------------------------------------------0-0-0-0-0-0-0-0--|
A-3-3-3-3-3-3-3-3-3-3-3-3-3-3-3-3----------------------------------|
E---------------------------------3-3-3-3-3-3-3-3------------------|

G------------------------------------------------------------------|
D-------------------------------------------------0-0-0-0-0-0-0-0--|
A-3-3-3-3-3-3-3-3-3-3-3-3-3----------------------------------------|
E---------------------------0-1-2-3-3-3-3-3-3-3-3------------------|

Pre-Chorus
G-----------------------------------------------------------------|
D---------------------------------1-1-1-1-1-1-1-1-1-1-1-1-1-1-1-1-|
A-1-1-1-1-1-1-1-1-1-1-1-1-1-1-1-1---------------------------------|
E-----------------------------------------------------------------|

G-----------------------------------------------------------------|
D-------------------------------0-1-1-1-1-1-1-1-1-1-1-1-1-1-1-1-1-|
A-1-1-1-1-1-1-1-1-1-1-1-1-1-3-4-----------------------------------|
E-----------------------------------------------------------------|

Chorus
G-------------------------------------------------------------------|
D---------------------------------3-3-3-3-3-3-3-3-3-3-3-------------|
A-3-3-3-3-3-3-3-3-3-3-3-3-3-3-3-3-----------------------0-0-1-1-2-2-| x3
E-------------------------------------------------------------------|

G------------|
D--------5~--|
A------------|
E-3~---------|

Verse/Bridge/Guitar Solo
G--------------------------------------------------------------------|
D--------------------------------------------------0--0-0-0-0-0-0-0--|
A-3-3-3-3-3-3-3--3--3-3-3-3-3-3-3------------------------------------|
E---------------------------------3-3-3-3-3-3-3-3--------------------|

G--------------------------------------------------------------------|
D--------------------------------------------------0--0-0-0-0-0-0-0--|
A-3-3-3-3-3-3-3--3--3-3-3-3------------------------------------------|
E---------------------------0-1-2-3-3-3-3-3-3-3-3--------------------|

Pre-Chorus
G------------------------------------------------------------------|
D---------------------------------1-1-1-1-1-1-1-1-1-1-1-1-1-1-1-1--|
A-1-1-1-1-1-1-1-1-1-1-1-1-1-1-1-1----------------------------------|
E------------------------------------------------------------------|

G------------------------------------------------------------------|
D-------------------------------0-1-1-1-1-1-1-1-1-1-1-1-1-1-1-1-1--|
A-1-1-1-1-1-1-1-1-1-1-1-1-1-3-4------------------------------------|
E------------------------------------------------------------------|

Chorus/Guitar Solo/Ending      (play this until the song fades out)
G--------------------------------------------------------------------|
D---------------------------------3-3-3-3-3-3-3-3-3-3-3--------------|
A-3-3-3-3-3-3-3-3-3-3-3-3-3-3-3-3-----------------------0-0-1-1-2-2--|
E--------------------------------------------------------------------|

G------------------------------------------------------------------|
D---------------------------------3-3-3-3-3-3-3-3-3-3-3-3-3-3-3-3--|
A-3-3-3-3-3-3-3-3-3-3-3-3-3-3-3-3----------------------------------|
E------------------------------------------------------------------|
comments
print report bad tab
1 comment total.
0 reply
xJamesDean wrote on February 12 2016, 08:35 pm

Good tab, but I'd just like to clarify that the bass comes in the moment the singer comes in; not at the 2 minute mark as stated.

I want to post or [tab]
guest
You may want to rate the tab now too:
select rating
Please do not post tabs as comments. Select "correction" instead!