Oops, an error
Loading. Please wait.

Once Bitten Twice Shy Tab

version 2
version 2

Whole song

Interactive

13,247 views 3 this week
no commentswrite comment
1 2 3 4 5
please rate
add to favorites
launch autoscroll
font size
0
reset
how to read this tab
guitar tuner
Tab Pro tools
  • play this tab
  • loop segment
  • change instrument
  • show fretboard
  • metronome
×
Best way to learn
"Once Bitten Twice Shy"
Autoscroll
slow
fast
+/-
esc
set tempo
stop
Contributor
well there a couple of tabs on the site but theres a little wrong heres how its done
riff
e-----------------------------------------------------|
b-----------------------------------------------------|
g-----------------------------------------------------|
d-5-7-5--5-5-5-7-5--5-5-5-7-8-7-8-7-5-5---------------|
a-3-3-3--3-3-3-3-3--3-3-3-3-3-3-3-3-3-3---------------|
e-----------------------------------------------------|

e-----------------------------------------------------|
b-----------------------------------------------------|
g---------------------------------5-------5-------5---|
d-5-5-5-7-5--5-5-5-7-5--5-5-------5-------5-------5---|
a-3-3-3-3-3--3-3-3-3-3--3-3-3-5-6---3-5-6---3-5-6-----|
e-----------------------------------------------------|

e------------------------------------------------------|
b------------------------------------------------------|
g------------------------------------------------------|
d-5-5-5-7-8--5-5-5-7-8-5-5-5-7-8-7-8-7-5-5-------------|
a-3-3-3-3-3--3-3-3-3-3-3-3-3-3-3-3-3-3-3-3-------------|
e------------------------------------------------------|

verse
e---------------------------------------------------------------|
b---------------------------------------------------------------|
g---------------------------------------------------------------|
d-----------------------------------------------7-7-7-7-7-7-7-7-|
a101010101010101010101010101010-5-5-5-5-5-5-5-5-5-5-5-5-5-5-5-5-|
e-8-8-8-8-8-8-8-8-8-8-8-8-8-8-8-3-3-3-3-3-3-3-3-----------------|


e---------------------------------------------------------------|
b---------------------------------------------------------------|
g---------------------------------------------------------------|
d---------------------------------8-8-8-8-8-8-8-8-8-8-8-8-8-8-8-|
a-8-8-8-8-8-8-8-8-8-8-8-8-8-8-8-8-6-6-6-6-6-6-6-6-6-6-6-6-6-6-6-|
e-6-6-6-6-6-6-6-6-6-6-6-6-6-6-6-6-------------------------------|

now im working on the piano part give me time
comments
We did not receive enough feedback on this tab! Please rate:
print report bad tab
1 2 3 4 5
I want to post or [tab]
guest
You may want to rate the tab now too:
select rating
Please do not post tabs as comments. Select "correction" instead!