Oops, an error
Loading. Please wait.

Was It The Night intro tab

10 views 1 this week
no commentswrite comment
1 2 3 4 5
3 more votes to show rating
add to favorites
×
Save as Personal and add changes to this tab that will be seen only by you. Learn more ›
×
You can save this tab as Personal to edit and correct it or add notes. All changes will be seen only by you. Learn more »
launch autoscroll
font size
0
reset
how to read this tab
guitar tuner
edit
Autoscroll
slow
fast
+/-
esc
set tempo
stop
About this tab version
I've wanted to learn this intro solo for a while but there were no tabs for it, so I taught myself by ear and decided to post a tab myself for anyone in the same boat. This is my first tab so feel free to improve upon it. I recommend listening to the song a few times and try playing along as the guitarist likes bending to just above/below exact notes. In the 3rd part of the tab when you bend 17b18b18b19, the second bend is just above 18 but slightly below 19 note-wise. If that makes senseOr idk do what you want. Was this info helpful? Yes No
[Intro]
e|--10b12----12-12---12br10--7-----------------------------------------------|
B|------------------------------~11---8---8h10p8-----------------------------|
G|--------------------------------------9--------9---------------------------|
D|---------------------------------------------------------------------------|
A|---------------------------------------------------------------------------|
E|---------------------------------------------------------------------------|

e|----------6/7--10--10/12---------------------------------------------------|
B|--0-----8-----------------10h11p10---8---8----8-8-h9p8--8b9br8-------------|
G|----7-9--------------------------------9-----------------------------------|
D|---------------------------------------------------------------------------|
A|---------------------------------------------------------------------------|
E|---------------------------------------------------------------------------|

e|--10b12--12--14--15--17b18b18b19--19br17--15----15h17--17b19----19br17--15-|
B|------------------------------------------17-----------------------------17|
G|---------------------------------------------------------------------------|
D|---------------------------------------------------------------------------|
A|---------------------------------------------------------------------------|
E|---------------------------------------------------------------------------|

e|---------------------------------------------------------------------------|
B|-----------8--7------------------------------------------------------------|
G|-----7--9-------9--7--9----------------------------------------------------|
D|--9------------------------------------------------------------------------|
A|---------------------------------------------------------------------------|
E|---------------------------------------------------------------------------|

************************************

| b   Bend
| br  Bend release
| h   Hammer-on
| p   Pull-off
| ~   Vibrato
| /   Slide up

************************************

            
            
Suggest correction
Creating personal tab
Creating personal tab
You can edit any tab online and save it as your Personal.

You can edit, replace or remove any tab part or add personal notes – all changes will be seen only by you.

Personal tabs can be accessed anytime from any device, even offline.
Learn more »
Give kudos to tab author, rate the tab!
1 2 3 4 5
comments
print report bad tab
guest
You may want to rate the tab now too:
select rating
Wanna post a correction for this tab? Suggest correction