Oops, an error
Loading. Please wait.

Outside Of This tab

version 1
version 1

Whole song

212 views 3 this week
2 commentsread comments
1 2 3 4 5
x 3
add to favorites
×
Save as Personal and add changes to this tab that will be seen only by you. Learn more ›
×
You can save this tab as Personal to edit and correct it or add notes. All changes will be seen only by you. Learn more »
launch autoscroll
font size
0
reset
how to read this tab
guitar tuner
edit
Autoscroll
slow
fast
+/-
esc
set tempo
stop
i actually played this song wtih Greeley Estates in Bakersfield, it is 100% correct i 
it.

im not gonna put the timing as you can figure it out for yourself. again, TAB DOES NOT 
STRUMS.

Drop D tuning

h=hammer
p=pull off
/=slide
x=palm mute

guitar 1 intro

e-0-0-0-0-0-0-0--0--|
b-5-6-5-6-5-6-5-10--|
g-------------------|
d-------------------|
a-------------------|
e-------------------|

guitar 2 intro

e-----------------|
b-----------------|
g-----------------|
d-00-00-00-000----|
a-00-00-00-000----|
e-00-00-00-000----|
palm mute


second part of intro both guitars
e------------------------------|
b------------------------------|
g---9/10---9/10---9/10-5-444---|
d-0-7/8--0-7/8--0-7/8--3-222---|
a-0-7/8--0-7/8--0-7/8--3-222---|
e-0-7/8--0-7/8--0-7/8--3-222---|

verse guitar 1


e------------------------------------------|
b-----5h6p5------5h6p5----5h6p5-8-6-5h6p5--|
g----------5-------------------5---------5-|
d-000--------000-------000-----------------|
a-000--------000-------000-----------------|
e-000--------000-------000-----------------|
  xxx        xxx       xxx


e-------------------------------------------------------|
b-------------------------------------------------------|
g---------9h10p9----------9h10p9-----------9h10p9---5-4-|
d-10-10-10--------10-10-10--------10-10-10-------10-3-2-|
a-10-10-10--------10-10-10--------10-10-10----------3-2-|
e-10-10-10--------10-10-10--------10-10-10----------3-2-|
  x  x  x         x  x  x         x  x  x

guitar 2 plays all of the palm muted parts along with guitar 1

chorus both guitars


e------------------------|
b------------------------|
g---10-9-5-4---10-12-5-4-|
d-0-8--7-3-2-0-8--10-3-2-|
a-0-8--7-3-2-0-8--10-3-2-|
e-0-8--7-3-2-0-8--10-3-2-|

bridge guitar 1
guitar 2 plays all palm muted parts along with guitar 1


e-----------------------------------------------------------------|
b-----------------------------------------------------------------|
g-------8---7/8/7---7/8/7---7/897-5-4---7/8/7---7/8/7---7/8/7-5-4-|
d-0-0-0-8-0-7/8/7-0-7/8/7-0-7/8/7-3-2-0-7/8/7-0-7/8/7-0-7/8/7-3-2-|
a-0-0-0-6-0-5/6/5-0-5/6/5-0-5/6/5-3-2-0-5/6/5-0-5/6/5-0-5/6/5-3-2-|
e-0-0-0---0-------0-------0-------3-2-0-------0-------0-------3-2-|
  x x x   x       x       x           x       x       x

bridge 2 guitar 1 plays first part of intro
guitar 2 lets d-0- ring throught guitar 1s playing then palm mutes at end.
              a-0-
              e-0-

the play chorus and then second part of intro as outro.

            
            
Suggest correction
Creating personal tab
Creating personal tab
You can edit any tab online and save it as your Personal.

You can edit, replace or remove any tab part or add personal notes – all changes will be seen only by you.

Personal tabs can be accessed anytime from any device, even offline.
Learn more »
Give kudos to tab author, rate the tab!
1 2 3 4 5
comments
print report bad tab
2 comments total.
0 reply
havoc444 10 Nov 24, 2006 03:51 PM

the intro is wrong. and you did not play it with greeley estates.
your a dumb dumb.

0 reply
GingerXCore 10 Dec 05, 2006 02:59 PM

Most of this is wrong! try again!!!

guest
Wanna post a correction for this tab? Suggest correction