Oops, an error
Loading. Please wait.

Wolves Make Great Actors Tab

1,046 views 1 this week
no commentswrite comment
1 2 3 4 5
please rate
add to favorites
launch autoscroll
font size
0
reset
how to read this tab
guitar tuner
Autoscroll
slow
fast
+/-
esc
set tempo
stop
Help us to improve Ultimate-Guitar.com Take our survey!
×
Author
Difficulty
Tuning
iamghost 1,495
intermediate
B F# B E G# C#
Ahh, the classic wolf song... haha not really. Here's another one of the "easier" songs 
"No Rain, No Rainbow". Enjoy =]

Greeley Estates
"Wolves Make Great Actors"
No Rain, No Rainbow

INTRO---
Both guitars:
(0:00)
|------------------------------------------------------------------|
|------------------------------------------------------------------|
|------------------------------------------------------------------|
|------------------------------------------------------------------|
|-0-0-0-0-0-0-000~-0-0-0-0-0-000~-0-0-0-0-0-0-000~-----------------|
|-0-0-0-0-0-0-000~-0-0-0-0-0-000~-0-0-0-0-0-0-000~-2-2-2-2-1-1-1-1-|
  . . . . . . ...  . . . . . ...  . . . . . . ...

(0:04)
|------------------------------------------------------------------|
|------------------------------------------------------------------|
|------------------------------------------------------------------|
|------------------------------------------------------------------|
|-0-0-0-0-0-0-000~-0-0-0-0-0-000~-0-0-0-0-0-0-000~-----------------|
|-0-0-0-0-0-0-000~-0-0-0-0-0-000~-0-0-0-0-0-0-000~-2-2-2-2-1-1-1-1-|
  . . . . . . ...  . . . . . ...  . . . . . . ...


VERSE 1---
(0:09)
"Now that you're caught, it looks like you've used that line too many..."
|------------------------------------------------------------------|
|------------------------------------------------------------------|
|------------------------------------------------------------------|
|------------------------------------------------------------------|
|-6-0---3-0-0-000~-0-0-0-0-0-000~-0-0-0-0-0-0-000~-----------------|
|-----4---0-0-000~-0-0-0-0-0-000~-0-0-0-0-0-0-000~-2-2-2-2-1-1-1-1-|
          . . ...  . . . . . ...  . . . . . . ...

(0:14)
"times before, and now it's worn out..."
|------------------------------------------------------------------|
|------------------------------------------------------------------|
|------------------------------------------------------------------|
|------------------------------------------------------------------|
|-0-0-0-0-0-0-000~-0-0-0-0-0-000~-0-0-0-0-0-0-000~-----------------|
|-0-0-0-0-0-0-000~-0-0-0-0-0-000~-0-0-0-0-0-0-000~-2-2-2-2-1-1-1-1-|
  . . . . . . ...  . . . . . ...  . . . . . . ...

Guitar 2:
(0:09)
|-------------------------------------------------------------------|
|-------------------------------------------------------------------|
|-------------------------------------------------------------------|
|--5----------------------------------------------------------------|
|--------6-0-0-000~-0-0-0-0-0-000~-0-0-0-0-0-0-000~-----------------|
|----7-8---0-0-000~-0-0-0-0-0-000~-0-0-0-0-0-0-000~-2-2-2-2-1-1-1-1-|
           . . ...  . . . . . ...  . . . . . . ...

(0:14)
|------------------------------------------------------------------|
|------------------------------------------------------------------|
|------------------------------------------------------------------|
|------------------------------------------------------------------|
|-0-0-0-0-0-0-000~-0-0-0-0-0-000~-0-0-0-0-0-0-000~-----------------|
|-0-0-0-0-0-0-000~-0-0-0-0-0-000~-0-0-0-0-0-0-000~-2-2-2-2-1-1-1-1-|
  . . . . . . ...  . . . . . ...  . . . . . . ...


PRECHORUS 1---
Guitar 1:
(0:19)
"It's all just a game to you, it's just a show for all the..."
|------------------------------------------------------------------|
|------------------------------------------------------------------|
|------------------------------------------------------------------|
|------------------------------------------------------------------|
|-6-0---3-000-000~-----3-000-000~-6-0---3-000-000~-----------------|
|-----4---000-000~-3-4---000-000~-----4---000-000~-2-2-2-2-1-1-1-1-|
          ... ...        ... ...          ... ...

(0:24)
"ladies to see you're a wolf, wolf dressed in sheepskin..."
|------------------------------------------------------------------|
|------------------------------------------------------------------|
|------------------------------------------------------------------|
|------------------------------------------------------------------|
|-6-0---3-000-000~-----3-000-000~-6-0---3-000-000~-----------------|
|-----4---000-000~-3-4---000-000~-----4---000-000~-2-2-2-2-1-1-1-1-|
          ... ...        ... ...          ... ...

Guitar 2:
(0:19)
|------------------------------------------------------------------|
|------------------------------------------------------------------|
|------------------------------------------------------------------|
|-5-------------------------------5--------------------------------|
|-------6-000-000~-----6-000-000~-------6-000-000~-----------------|
|---7-8---000-000~-7-8---000-000~---7-8---000-000~-2-2-2-2-1-1-1-1-|
          ... ...        ... ...          ... ...

(0:24)
|------------------------------------------------------------------|
|------------------------------------------------------------------|
|------------------------------------------------------------------|
|-5-------------------------------5--------------------------------|
|-------6-000-000~-----6-000-000~-------6-000-000~-----------------|
|---7-8---000-000~-7-8---000-000~---7-8---000-000~-2-2-2-2-1-1-1-1-|
          ... ...        ... ...          ... ...


CHORUS--- [slow down]
Guitar 1:
(0:29)
"Nice impression, now tell us who you are..."
|------------------------------------------------------------------|
|------------------------------------------------------------------|
|------------------------------------------------------------------|
|------------------------------------------------------------------|
|-0-0-0-0-0-0-000~-0-0-0-0-0-000~-0-0-0-0-0-0-000~-----------------|
|-0-0-0-0-0-0-000~-0-0-0-0-0-000~-0-0-0-0-0-0-000~-2-2-2-2-1-1-1-1-|
  . . . . . . ...  . . . . . ...  . . . . . . ...

(0:36)
"Nice impression, now tell us who you are..."
|------------------------------------------------------------------|
|------------------------------------------------------------------|
|------------------------------------------------------------------|
|------------------------------------------------------------------|
|-0-0-0-0-0-0-000~-0-0-0-0-0-000~-0-0-0-0-0-0-000~-----------------|
|-0-0-0-0-0-0-000~-0-0-0-0-0-000~-0-0-0-0-0-0-000~-2-2-2-2-1-1-1-1-|
  . . . . . . ...  . . . . . ...  . . . . . . ...

Guitar 2:
(0:29)
|--------------------------------------------------------------------------|
|--------------------------------------------------------------------------|
|--------------------------------------------------------------------------|
|--------------------------------------------------------------------------|
|-0-0-0-0-0-0-000~-0-0-0-0-0-000~-0-0-0-0-0-0-000~-------------------------|
|-0-0-0-0-0-0-000~-0-0-0-0-0-000~-0-0-0-0-0-0-000~-11-11-11-11-10-10-10-10-|
  . . . . . . ...  . . . . . ...  . . . . . . ...

(0:36)
|--------------------------------------------------------------------------|
|--------------------------------------------------------------------------|
|--------------------------------------------------------------------------|
|--------------------------------------------------------------------------|
|-0-0-0-0-0-0-000~-0-0-0-0-0-000~-0-0-0-0-0-0-000~-------------------------|
|-0-0-0-0-0-0-000~-0-0-0-0-0-000~-0-0-0-0-0-0-000~-11-11-11-11-10-10-10-10-|
  . . . . . . ...  . . . . . ...  . . . . . . ...


POSTCHORUS 1---
Guitar 1:
(0:44)
|-------|
|-------|
|-7~~~~-|
|-0~~~~-|
|-0~~~~-|
|-0~~~~-|

(0:46)
"Nice disguise..."
|-----------------------------------------------------------------------|
|-----------------------------------------------------------------------|
|-----------------------------------------------------------------------|
|-----------------------------------------------------------------------|
|-000000000000------------------------000000000000----------------------|
|-000000000000-/6-6-6-6-6-6-6-5-5-5-5-000000000000-/6-6-6-6-6-6-5-5-8-8-|
  ............                        ............

(0:51)
"Nice disguise..."
|-----------------------------------------------------------------------|
|-----------------------------------------------------------------------|
|-----------------------------------------------------------------------|
|-----------------------------------------------------------------------|
|-000000000000------------------------000000000000----------------------|
|-000000000000-/6-6-6-6-6-6-6-5-5-5-5-000000000000-/6-6-6-6-6-6-5-5-8-8-|
  ............                        ............

(0:56)
"You just..."
|-----------------------------------------|
|-----------------------------------------|
|-----------------------------------------|
|-----------------------------------------|
|-----------------------------------------|
|-8-8-8-8-8-8-8-8-11-11-11-11-11-11-11-11-|

Guitar 2:
(0:44)
|-------|
|-------|
|-7~~~~-|
|-0~~~~-|
|-0~~~~-|
|-0~~~~-|

(0:46)
|------------------------------------------------------------------------------------------|
|------------------------------------------------------------------------------------------|
|------------------------------------------------------------------------------------------|
|------------------------------------------------------------------------------------------|
|-000000000000---------------------------------000000000000--------------------------------|
|-000000000000-/13-13-13-13-13-13-12-12-12-12--000000000000-/13-13-13-13-13-13-12-12-12-12-|
  ............                        ............

(0:51)
|------------------------------------------------------------------------------------------|
|------------------------------------------------------------------------------------------|
|------------------------------------------------------------------------------------------|
|------------------------------------------------------------------------------------------|
|-000000000000---------------------------------000000000000--------------------------------|
|-000000000000-/13-13-13-13-13-13-12-12-12-12--000000000000-/13-13-13-13-13-13-12-12-12-12-|
  ............                        ............

(0:56)
|-----------------------------------------|
|-----------------------------------------|
|-----------------------------------------|
|-----------------------------------------|
|-----------------------------------------|
|-11-11-11-11-11-11-11-11-7-7-7-7-7-7-7-7-|


BRIDGE THINGY---
[random screams the whole time]
ONLY Guitar 1:
(0:58)
|------------------------------------------------------------------|
|------------------------------------------------------------------|
|------------------------------------------------------------------|
|------------------------------------------------------------------|
|-6-0---3-000-000~-----3-000-000~-6-0---3-000-000~-----------------|
|-----4---000-000~-3-4---000-000~-----4---000-000~-2-2-2-2-1-1-1-1-|
          ... ...        ... ...          ... ...

(1:03)
                                                  "until there's nothing..."
|--------------------------------------------------------------|
|--------------------------------------------------------------|
|--------------------------------------------------------------|
|----------------------------------------------------------7b*-| <--- both
|-6-0---3-000-000~-----3-000-000~-6-0---3-000-000~-------------| guitars
|-----4---000-000~-3-4---000-000~-----4---000-000~-2-2-2-2-----| play this
          ... ...        ... ...          ... ...                pinch harm.


VERSE 2---
[repeat VERSE 1 x2, without the little riff - the 6, 7, 4, 3 one - in the beginning of 
first time]
(1:08-1:26)
"left...
Until there's nothing left to give...
You act like a wounded lamb...
You've done a great job of hiding those fangs from us...
But we followed the blood..."

PRECHORUS 2---
[repeat PRECHORUS 1]
(1:27-1:36)
"You put on your mask...
Hoping that all the little girls will come and fall for your bait again...
But they've caught on..."

REPEAT CHORUS---
(1:37-1:51)
"Nice impression now tell us who you are
(Soon they'll see what I see
Soon they'll know you're lying)
Nice impression now tell us who you are
(Soon they'll see what I see
Soon they'll know you're lying)"

POSTCHORUS 2---
[repeat POSTCHORUS 1 x2]
(1:52-2:15)
"Nice disguise...
Nice disguise...
I really can't take anymore of this...
Anymore of your excuses...
You burned that bridge too many times...
Before you've left nothing but a trail of fire..."


BREAKDOWN PART 1--- [rapid friggin tremolo picking]
Both guitars:
(2:16)
"Soon they'll see..."
|-------------------------------|
|-------------------------------|
|-------------------------------|
|-------------------------------|
|-000-000-000-000-000-000-00000-|
|-000-000-000-000-000-000-00000-|
  ... ... ... ... ... ... .....

(2:19)
"Soon they'll see..."
|-------------------------------|
|-------------------------------|
|-------------------------------|
|-------------------------------|
|-000-000-000-000-000-000-00000-|
|-000-000-000-000-000-000-00000-|
  ... ... ... ... ... ... .....

(2:22)
"Soon they'll see..."
|--------------------------------|
|--------------------------------|
|--------------------------------|
|--------------------------------|
|-000-000-000-000-000-000-00000~-|
|-000-000-000-000-000-000-00000~-|
  ... ... ... ... ... ... .....

(2:26)
"Soon they'll see you're a..."
|----------------------------------------------|
|----------------------------------------------|
|----------------------------------------------|
|----------------------------------------------|
|-000~-000~-000~-000~-000~-000~-00000~--00000~-|
|-111~-111~-111~-111~-111~-111~-11111~--11111~-|
  ...  ...  ...  ...  ...  ...  .....   .....

BREAKDOWN PART 2--- [Do NOT palm mute]
"fake..."
(2:30)
|--------------------------------------|
|--------------------------------------|
|--------------------------------------|
|--------------------------------------|
|--------------------------------------|
|-000~-000~-000~-000~-000~-000~-00000~-|

(2:34)
|--------------------------------------|
|--------------------------------------|
|--------------------------------------|
|--------------------------------------|
|--------------------------------------|
|-000~-000~-000~-000~-000~-000~-00000~-|

(2:37)
|--------------------------------------|
|--------------------------------------|
|--------------------------------------|
|--------------------------------------|
|--------------------------------------|
|-000~-000~-000~-000~-000~-000~-00000~-|

(2:40)
|----------------------------------------------|
|----------------------------------------------|
|----------------------------------------------|
|----------------------------------------------|
|----------------------------------------------|
|-111~-111~-111~-111~-111~-111~-11111~--11111~-|


POST BREAKDOWN---
Both guitars:
(2:45)
"Now that you're caught it looks like you've used that line too many..."
|------------------------------------------------------------------------------------------|
|------------------------------------------------------------------------------------------|
|------------------------------------------------------------------------------------------|
|------------------------------------------------------------------------------------------|
|-000000000000---------------------------------000000000000--------------------------------|
|-000000000000-/13-13-13-13-13-13-12-12-12-12--000000000000-/13-13-13-13-13-13-12-12-15-15-|
  ............                                 ............

(2:49)
"times before and now it's worn out..."
|------------------------------------------------------------------------------------------|
|------------------------------------------------------------------------------------------|
|------------------------------------------------------------------------------------------|
|------------------------------------------------------------------------------------------|
|-000000000000---------------------------------000000000000--------------------------------|
|-000000000000-/13-13-13-13-13-13-12-12-12-12--000000000000-/13-13-13-13-13-13-12-12-15-15-|
  ............                                 ............


REPEAT PRECHORUS 1 x2---
(2:54-3:13)
"It's all just a game to you...
It's just a show for all the ladies...
To see you're a wolf...
Wolf dressed in sheepskin..."

REPEAT CHORUS---
(3:14-3:28)
"Nice impression now tell us who you are
(Soon they'll see what I see
Soon they'll know you're lying)
Nice impression now tell us who you are
(Soon they'll see what I see
Soon they'll know you're lying)"

OUTRO---
(3:29-3:43)
"Soon they'll see what I see, soon they'll know you're lying..."
|-------|
|-------|
|-------|
|-0~~~~-|
|-0~~~~-|
|-0~~~~-|
Suggest correction new What's this?
You can suggest a correction to this tab. Community and Mods will review your correction and vote to approve or reject it.
comments
We did not receive enough feedback on this tab! Please rate:
print report bad tab
1 2 3 4 5
guest
You may want to rate the tab now too:
select rating
Please do not post tabs as comments. Select "correction" instead!