Oops, an error
Loading. Please wait.

1000 Hours Bass Tab

version 2
version 2

Whole song

Interactive

959 views 6 this week
1 commentread comment
1 2 3 4 5
excellent!
x 3
add to favorites
launch autoscroll
font size
0
reset
guitar tuner
Autoscroll
slow
fast
+/-
esc
set tempo
stop
Help us to improve Ultimate-Guitar.com Take our survey!
×
Author
Difficulty
Band: Green Day
Song: 1,000 Hours
Bassist: Mike Dirnt
Album: 1039/Smoothed Out Slappy Hours
Transcripted by Angelus Rho Needreary III (Eric Needreary)

(7) --> Natural Harmonic
3/5 --> Slide up
5p4 --> Pull-of
5*- --> Don't let the note ring
7== --> Let ring

Intro

  \"Starlit night"..."I need"|"Up at"..."of your grace"||
G||--------------------------|-------------------------||
D||-REST---------------------|-(7)(7)(7)(7)(7)(7)(7)(7)||
A||--------------------------|-------------------------||
E||--------------------------|-------------------------||

1st Verse

  \"Here is the flower" ||\"sailing across the sea..." ||
G||---------------------||-----------------------------||
D||º-------------------º||--------------------567-77777||
A||º-------------------º||-----------------------------||
E||--55555-55-55555-55--||--55555-55-55555-55----------||

1st Chorus

  \"Let my"..."as one..."|"too strong..."
G||----------------------|-------------------------||
D||---------------------º|-------------------------||
A||---------------------º|-------------------------||
E||2-22-22222-3-33-33333-|3/5-55-55555-5-55-555555-||

2nd Verse

  \"Nothing's more...." |\"I'll never leave"          ||
G||---------------------|-----------------------------||
D||º-------------------º|--------------------567-77777||
A||º-------------------º|-----------------------------||
E||--55555-55-55555-55--|--55555-55-55555-55----------||

 \"Our romance"."never part"|"1000 Hours"."we start"--||
G|--------------------------|-------------------------||
D|--------------------------|-(7)(7)(7)(7)(7)(7)(7)(7)||
A|-REST---------------------|-------------------------||
E|--------------------------|-------------------------||

2nd Chorus

 \"Let my"...."as one..."|"too strong..."
G||----------------------|-------------------------||
D||---------------------º|-------------------------||
A||---------------------º|-------------------------||
E||2-22-22222-3-33-33333-|3/5-55-55555-5-55-555555-||

Fill

G||------------------------------------------------||
D||-------------------------------------567-777777-||
A||------------------------------------------------||
E||-5-55-555555-5-55-555555-5-55-555555------------||

3rd Chorus

 \"Let my"...."as one..."|"too strong..."
G||----------------------|-------------------------|
D||----------------------|-------------------------|
A||--REST----------------|-------------------------|
E||----------------------|3/5-55-55555-5-55-555555-|

G||------------------------------------------------||
D||-------------------------------------567-777777-||
A||------------------------------------------------||
E||-5-55-555555-5-55-555555-5-55-555555------------||

Guitar Solo

  \Keep playing this 'til the bass fill begin |
G||-------------------------------------------|
D||º-777777777777777777777777777777777777777-º|
A||º-----------------------------------------º|
E||-------------------------------------------|

   Bass fill during guitar solo

G||-9-7-6-----------------------------------------------------||
D||-------7-6-4--------------------------4-6-7-77777777777777-||
A||-------------7--5p4-------------4-5-7----------------------||
E||--------------------5-55555-5-7----------------------------||

Ending

                                 \"Ooohhhh...______||
G||------------------------------------------------||
D||-----7==----7==----7==----7=====================||
A||------------------------------------------------||
E||-5*-5===5*-5===5*-5===5*-5===-5=================||
Suggest correction
Give kudos to tab author, rate the tab!
1 2 3 4 5
comments
print report bad tab
1 comment total.
+1 reply
Eric Needreary 156 wrote on June 27 2008, 01:28 pm

Sorry, but I reviewed the tablature and I want to make a little correction on the bass fille at the end of the song, right?

Bass fill during guitar solo

G||-9-7-6-----------------------------------------------------||
D||-------9-7-6--------------------------4-6-7-77777777777777-||
A||-------------7--5p4-------------4-5-7----------------------||
E||--------------------5-55555-5-7----------------------------||


Ok?

guest
You may want to rate the tab now too:
select rating
Please do not post tabs as comments. Select "correction" instead!