Oops, an error
Loading. Please wait.

16 Tab

version 1
version 1

Whole song

Interactive

6,855 views 9 this week
9 commentsread comments
1 2 3 4 5
x 12
add to favorites
launch autoscroll
font size
0
reset
how to read this tab
guitar tuner
Autoscroll
slow
fast
+/-
esc
set tempo
stop
Help us to improve Ultimate-Guitar.com Take our survey!
×
Author
-------------------------------------------------------------------------------
                             16 - Green Day
-------------------------------------------------------------------------------

By: Gary Brockway

. = palm mute
~ = let ring out (hold notes)

(repeat parts as needed)

intro/verse:

    ....      ....      .    
e|---------------------------0--------------------------------0--------------|
B|-------------------------0-0------------------------------0-0--------------|
G|--4--4--4---2--2--2------1-1--4---4-4----4--4-4--2-2-2----1-1--4---4-4-----|
D|--4--4--4---2--2--2---2--2-2--4---4-4----4--4-4--2-2-2--2-2-2--4---4-4-----|
A|--2--2--2---0--0--0---2-------2---2-2----2--2-2--0-0-0--2------2---2-2-----|
E|----------------------0---------------------------------0------------------|

chorus:

e|---------------------------------------------------------------------------|
B|---------------------------------------------------------------------------|
G|--5-5-5-5-7-7-7-7-4-4-4-4-4-4-4--------------------------------------------|
D|--5-5-5-5-7-7-7-7-4-4-4-4-4-4-4--------------------------------------------|
A|--3-3-3-3-5-5-5-5-2-2-2-2-2-2-2--------------------------------------------|
E|---------------------------------------------------------------------------|

bridge:

e|---------------------------------------------------------------------------|
B|----7-----------------------7----------------------------------------------|
G|--8---7--7-7--7-7--7--7---8---7--7-7--7-7--7--7----------------------------|
D|------9--9-9--9-9--9--9-------9--9-9--9-9--9--9----------------------------|
A|------9--9-9--9-9--9--9-------9--9-9--9-9--9--9----------------------------|
E|------7--7-7--7-7--7--7-------7--7-7--7-7--7--7----------------------------|

===============================================================================
Suggest correction
comments
print report bad tab
9 comments total. Showing first comments.
0 reply
WCS_Is_Worse1 10 Jun 09, 2006 10:41 AM

I should Slap you

0 reply
The_Beginner 440 Jan 02, 2007 06:44 PM

dude, this is sooo wrong XD
the intro should be like this (I made it up myself like 1 minute ago :p):

|-----------------------------------|
|-----------------------------------|
|------------------------9-9-9------|
|--9-9-9-9-9--7-7-7-7-7--9-9-9-9~---|
|--9-9-9-9-9--7-7-7-7-7--7-7-7-9~---|
|--7-7-7-7-7--5-5-5-5-5--------7~---|
x x x x x x x x

X= Mute

Alright, after playing that, play the same again, but don't mute.
It's really easy =)
Now i just hae to make up the rest of the song XD

0 reply
The_Beginner 440 Jan 02, 2007 06:45 PM

oops, the mute-x's did'nt placed where i wanted them to be placed :'(

guest
You may want to rate the tab now too:
select rating
Wanna post a correction for this tab? Suggest correction