Oops, an error
Loading. Please wait.

2000 Light Years Away Tab

version 5
version 5
262 views 1 this week
no commentswrite comment
1 2 3 4 5
please rate
add to favorites
launch autoscroll
font size
0
reset
how to read this tab
guitar tuner
Tab Pro tools
  • play this tab
  • loop segment
  • change instrument
  • show fretboard
  • metronome
×
Best way to learn
"2000 Light Years Away"
Autoscroll
slow
fast
+/-
esc
set tempo
stop
Contributor
Difficulty
Tuning
novice
D# G# C# F# A# D#
-------------------------------------------------------------------------------
                    2000 Light Years Away - Green Day
-------------------------------------------------------------------------------
Tabbed by: Nick Bibeau
E-mail: gitarhro4@hotmail.com

Tuning: Half-step down

I realize there should be palm mutes in here but I don't usually play with palm mutes. I 
just strum through all of this. If you want to add in the palm mutes, do so where ever 
it feels necessary. Also the lines represent the beat lines so you can tell where to keep beat.

Also although there are no EADGBe things shown next to the lines, it should be known 
that they are EADGBe respectively in the way you would normally see it tabbed out, but in 
the half step down as mentioned previously.


   Intro/Bridge 1

   0      1/4     1/2     3/4      1
   |-------|-------|-------|-------|-------|-------|-------|-------|
   |-------|-------|-------|-------|-------|-------|-------|-------|
   4---4-4-4-4-4---|-------|-------4---4-4-4-4-4---|-------|-------|
   4---4-4-4-4-4-6-|-4-4---4-4-4-4-4---4-4-4-4-4-6-|-4-4---4-4-4-4-|
   2---2-2-2-2-2-6-|-4-4---4-4-4-4-2---2-2-2-2-2-6-|-4-4---4-4-4-4-|
   |-------|-----4-|-2-2---2-2-2-2-|-------|-----4-|-2-2---2-2-2-2-|

   2                               3
   |-------|-------|-------|-------|-------|-------|-------|-------|
   |-------|-------|-------|-------|-------|-------|-------|-------|
   4---4-4-4-4-4---|-------|-------4---4-4-4-4-4---|-------|-------|
   4---4-4-4-4-4-6-|-4-4---4-4-4-4-4---4-4-4-4-4-6-|-4-4---4-4-4-4-|
   2---2-2-2-2-2-6-|-4-4---4-4-4-4-2---2-2-2-2-2-6-|-4-4---4-4-4-4-|
   |-------|-----4-|-2-2---2-2-2-2-|-------|-----4-|-2-2---2-2-2-2-|

   Verse 1

   4                               5
   |-------|-------|-------|-------|-------|-------|-------|-------|
   |-------|-------|-------|-------|-------|-------|-------|-------|
   4---4-4-4-4-4-4-|-------|-------4---4-4-4-4-4---|-------|-------|
   4---4-4-4-4-4-4-4---4-4-4-4-4-4-4---4-4-4-4-4-4-|-4-4---4-4-4-4-|
   2---2-2-2-2-2-2-4---4-4-4-4-4-4-2---2-2-2-2-2-4-|-4-4---4-4-4-4-|
   |-------|-------2---2-2-2-2-2-2-|-------|-----2-|-2-2---2-2-2-2-|

   6                               7
   |-------|-------|-------|-------|-------|-------|-------|-------|
   |-------|-------|-------|-------|-------|-------|-------|-------|
   4---4-4-4-4-4---|-------|-------4---4-4-4-4-4---|-------|-------|
   4---4-4-4-4-4-4-|-4-4---4-4-4-4-4---4-4-4-4-4-4-|-4-4---4-4-4-4-|
   2---2-2-2-2-2-4-|-4-4---4-4-4-4-2---2-2-2-2-2-4-|-4-4---4-4-4-4-|
   |-------|-----2-|-2-2---2-2-2-2-|-------|-----2-|-2-2---2-2-2-2-|

   Chorus 1

   8                               9
   |-------|-------|-------|-------|-------|-------|-------|-------|
   |-------|-------|-------|-------|-------|-------|-------|-------|
   |-------|-------|-------|-------|-------|-------|-------|-------|
   6---6---6-6-6-9-|-9-9---9-9-9-9-x-x-6---x-6-x-4-|-4-4---4-4-4-4-|
   6---6---6-6-6-9-|-9-9---9-9-9-9-x-x-6---x-6-x-4-|-4-4---4-4-4-4-|
   4---4---4-4-4-7-|-7-7---7-7-7-7-x-x-4---x-4-x-2-|-2-2---2-2-2-2-|

   10                              11
   |-------|-------|-------|-------|-------|-------|-------|-------|
   |-------|-------|-------|-------|-------|-------|-------|-------|
   |-------|-------|-------|-------3/4-4-4-3/4-4-4-3/4-4-4-3/4-4-4-|
   2---2---2-2-2-4-|-4-4---4-4-4-4-3/4-4-4-3/4-4-4-3/4-4-4-3/4-4-4-|
   2---2---2-2-2-4-|-4-4---4-4-4-4-1/2-2-2-1/2-2-2-1/2-2-2-1/2-2-2-|
   0---0---0-0-0-2-|-2-2---2-2-2-2-|-------|-------|-------|-------|

   12                              13
   |-------|-------|-------|-------|-------|-------|-------|-------|
   |-------|-------|-------|-------|-------|-------|-------|-------|
   |-------|-------|-------|-------|-------|-------|-------|-------|
   6---6---6-6-6-9-|-9-9---9-9-9-9-x-x-6---x-6-x-4-|-4-4---4-4-4-4-|
   6---6---6-6-6-9-|-9-9---9-9-9-9-x-x-6---x-6-x-4-|-4-4---4-4-4-4-|
   4---4---4-4-4-7-|-7-7---7-7-7-7-x-x-4---x-4-x-2-|-2-2---2-2-2-2-|

                                   Bridge 2

   14                              15
   |-------|-------|-------|-------|-------|-------|-------|-------|
   |-------|-------|-------|-------|-------|-------|-------|-------|
   |-------|-------|-------|-------4---4-4-4-4-4---|-------|-------|
   2---2---2-2-2-4-|-4-4---4-4-4-4-4---4-4-4-4-4-6-|-4-4---4-4-4-4-|
   2---2---2-2-2-4-|-4-4---4-4-4-4-2---2-2-2-2-2-6-|-4-4---4-4-4-4-|
   0---0---0-0-0-2-|-2-2---2-2-2-2-|-------|-----4-|-2-2---2-2-2-2-|

   16                              17
   |-------|-------|-------|-------|-------|-------|-------|-------|
   |-------|-------|-------|-------|-------|-------|-------|-------|
   4---4-4-4-4-4---|-------|-------4---4-4-4-4-4---|-------|-------|
   4---4-4-4-4-4-6-|-4-4---4-4-4-4-4---4-4-4-4-4-6-|-4-4---4-4-4-4-|
   2---2-2-2-2-2-6-|-4-4---4-4-4-4-2---2-2-2-2-2-6-|-4-4---4-4-4-4-|
   |-------|-----4-|-2-2---2-2-2-2-|-------|-----4-|-2-2---2-2-2-2-|

                                   Verse 2

   18                              19
   |-------|-------|-------|-------|-------|-------|-------|-------|
   |-------|-------|-------|-------|-------|-------|-------|-------|
   4---4-4-4-4-4---|-------|-------4---4-4-4-4-4-4-|-------|-------|
   4---4-4-4-4-4-6-|-4-4---4-4-4-4-4---4-4-4-4-4-4-4---4-4-4-4-4-4-|
   2---2-2-2-2-2-6-|-4-4---4-4-4-4-2---2-2-2-2-2-2-4---4-4-4-4-4-4-|
   |-------|-----4-|-2-2---2-2-2-2-|-------|-------2---2-2-2-2-2-2-|

   20                              21
   |-------|-------|-------|-------|-------|-------|-------|-------|
   |-------|-------|-------|-------|-------|-------|-------|-------|
   4---4-4-4-4-4---|-------|-------4---4-4-4-4-4---|-------|-------|
   4---4-4-4-4-4-4-|-4-4---4-4-4-4-4---4-4-4-4-4-4-|-4-4---4-4-4-4-|
   2---2-2-2-2-2-4-|-4-4---4-4-4-4-2---2-2-2-2-2-4-|-4-4---4-4-4-4-|
   |-------|-----2-|-2-2---2-2-2-2-|-------|-----2-|-2-2---2-2-2-2-|

                                   Chorus 2

   22                              23
   |-------|-------|-------|-------|-------|-------|-------|-------|
   |-------|-------|-------|-------|-------|-------|-------|-------|
   4---4-4-4-4-4---|-------|-------|-------|-------|-------|-------|
   4---4-4-4-4-4-4-|-4-4---4-4-4-4-6---6---6-6-6-9-|-9-9---9-9-9-9-|
   2---2-2-2-2-2-4-|-4-4---4-4-4-4-6---6---6-6-6-9-|-9-9---9-9-9-9-|
   |-------|-----2-|-2-2---2-2-2-2-4---4---4-4-4-7-|-7-7---7-7-7-7-|

   24                              25
   |-------|-------|-------|-------|-------|-------|-------|-------|
   |-------|-------|-------|-------|-------|-------|-------|-------|
   |-------|-------|-------|-------|-------|-------|-------|-------|
   x-x-6---x-6-x-4-|-4-4---4-4-4-4-2---2---2-2-2-4-|-4-4---4-4-4-4-|
   x-x-6---x-6-x-4-|-4-4---4-4-4-4-2---2---2-2-2-4-|-4-4---4-4-4-4-|
   x-x-4---x-4-x-2-|-2-2---2-2-2-2-0---0---0-0-0-2-|-2-2---2-2-2-2-|

   26                              27
   |-------|-------|-------|-------|-------|-------|-------|-------|
   |-------|-------|-------|-------|-------|-------|-------|-------|
   3/4-4-4-3/4-4-4-3/4-4-4-3/4-4-4-|-------|-------|-------|-------|
   3/4-4-4-3/4-4-4-3/4-4-4-3/4-4-4-6---6---6-6-6-9-|-9-9---9-9-9-9-|
   1/2-2-2-1/2-2-2-1/2-2-2-1/2-2-2-6---6---6-6-6-9-|-9-9---9-9-9-9-|
   |-------|-------|-------|-------4---4---4-4-4-7-|-7-7---7-7-7-7-|

   28                              29
   |-------|-------|-------|-------|-------|-------|-------|-------|
   |-------|-------|-------|-------|-------|-------|-------|-------|
   |-------|-------|-------|-------|-------|-------|-------|-------|
   x-x-6---x-6-x-4-|-4-4---4-4-4-4-2---2---2-2-2-4-|-4-4---4-4-4-4-|
   x-x-6---x-6-x-4-|-4-4---4-4-4-4-2---2---2-2-2-4-|-4-4---4-4-4-4-|
   x-x-4---x-4-x-2-|-2-2---2-2-2-2-0---0---0-0-0-2-|-2-2---2-2-2-2-|

   Bridge 3

   30                              31
   |-------|-------|-------|-------|-------|-------|-------|-------|
   |-------|-------|-------|-------|-------|-------|-------|-------|
   4---4-4-4-4-4---|-------|-------4---4-4-4-4-4---|-------|-------|
   4---4-4-4-4-4-6-|-4-4---4-4-4-4-4---4-4-4-4-4-6-|-4-4---4-4-4-4-|
   2---2-2-2-2-2-6-|-4-4---4-4-4-4-2---2-2-2-2-2-6-|-4-4---4-4-4-4-|
   |-------|-----4-|-2-2---2-2-2-2-|-------|-----4-|-2-2---2-2-2-2-|

   32                              33
   |-------|-------|-------|-------|-------|-------|-------|-------|
   |-------|-------|-------|-------|-------|-------|-------|-------|
   4---4-4-4-4-4---|-------|-------4---4-4-4-4-4---|-------|-------|
   4---4-4-4-4-4-6-|-4-4---4-4-4-4-4---4-4-4-4-4-6-|-4-4---4-4-4-4-|
   2---2-2-2-2-2-6-|-4-4---4-4-4-4-2---2-2-2-2-2-6-|-4-4---4-4-4-4-|
   |-------|-----4-|-2-2---2-2-2-2-|-------|-----4-|-2-2---2-2-2-2-|

   Interlude (Bass)

   34                              35
   |-------|-------|-------|-------|-------|-------|-------|-------|
   |-------|-------|-------|-------|-------|-------|-------|-------|
   4~~~~~~~~~~~~~~~~~~~~~~~~~~~~~~~~~~~~~~~~~~~~~~~~~~~~~~~~~~~~~~~
   4~~~~~~~~~~~~~~~~~~~~~~~~~~~~~~~~~~~~~~~~~~~~~~~~~~~~~~~~~~~~~~~
   2~~~~~~~~~~~~~~~~~~~~~~~~~~~~~~~~~~~~~~~~~~~~~~~~~~~~~~~~~~~~~~~
   |-------|-------|-------|-------|-------|-------|-------|-------

   36                              37
   |-------|-------|-------|-------|-------|-------|---7---|-------|
   |-------|-------|-------|-------|-------|-------5/7---5-5/7-7\0-|
   ~~~~~~~~~~~~~~~~~~~~~~~~~~~~~~~~~~~~~~~~~~~~~~~~|-------|-------|
   ~~~~~~~~~~~~~~~~~~~~~~~~~~~~~~~~~~~~~~~~~~~~~~~~|-------|-------|
   ~~~~~~~~~~~~~~~~~~~~~~~~~~~~~~~~~~~~~~~~~~~~~~~~|-------|-------|
   |-------|-------|-------|-------|-------|-------|-------|-------|

   38                              39
   |-------|-------|-------|-------|-------|-------|-------|-------|
   |-------|-------|-------|-------|-------|-------|-------|-------|
   |-------|-------|-------|-------|-------|-------|-------|-------|
   |-------|-------|-------|-------|-------|-------|-------|-------|
   |-------|-------|-------|-------|-------|-------|-------|-------|
   |-------|-------|-------|-------|-------|-------|-------|-------|

   40                              41
   |-------|-------|-------|-------|-------|-------|-------|--------|
   |-------|-------|-------|-------|-------|-------|-------|--------|
   |-------|-------|-------|-------|-------|-------|-------|--------|
   |-------|-------xxxxxxxxxxxxxxxxxxxxxxxxxxxxxxxxxxxxxxxxxxxxxxxx-|
   |-------|-------xxxxxxxxxxxxxxxxxxxxxxxxxxxxxxxxxxxxxxxxxxxxxxxx-|
   |-------|-------xxxxxxxxxxxxxxxxxxxxxxxxxxxxxxxxxxxxxxxxxxxxxxxx-|

   Chorus 3

   42                              43
   |-------|-------|-------|-------|-------|-------|-------|-------|
   |-------|-------|-------|-------|-------|-------|-------|-------|
   |-------|-------|-------|-------|-------|-------|-------|-------|
   6---6---6-6-6-9-|-9-9---9-9-9-9-x-x-6---x-6-x-4-|-4-4---4-4-4-4-|
   6---6---6-6-6-9-|-9-9---9-9-9-9-x-x-6---x-6-x-4-|-4-4---4-4-4-4-|
   4---4---4-4-4-7-|-7-7---7-7-7-7-x-x-4---x-4-x-2-|-2-2---2-2-2-2-|

   44                              45
   |-------|-------|-------|-------|-------|-------|-------|-------|
   |-------|-------|-------|-------|-------|-------|-------|-------|
   |-------|-------|-------|-------3/4-4-4-3/4-4-4-3/4-4-4-3/4-4-4-|
   2---2---2-2-2-4-|-4-4---4-4-4-4-3/4-4-4-3/4-4-4-3/4-4-4-3/4-4-4-|
   2---2---2-2-2-4-|-4-4---4-4-4-4-1/2-2-2-1/2-2-2-1/2-2-2-1/2-2-2-|
   0---0---0-0-0-2-|-2-2---2-2-2-2-|-------|-------|-------|-------|

   46                              47
   |-------|-------|-------|-------|-------|-------|-------|-------|
   |-------|-------|-------|-------|-------|-------|-------|-------|
   |-------|-------|-------|-------|-------|-------|-------|-------|
   6---6---6-6-6-9-|-9-9---9-9-9-9-x-x-6---x-6-x-4-|-4-4---4-4-4-4-|
   6---6---6-6-6-9-|-9-9---9-9-9-9-x-x-6---x-6-x-4-|-4-4---4-4-4-4-|
   4---4---4-4-4-7-|-7-7---7-7-7-7-x-x-4---x-4-x-2-|-2-2---2-2-2-2-|

                                   Outro/Bridge 4

   48                              49
   |-------|-------|-------|-------|-------|-------|-------|-------|
   |-------|-------|-------|-------|-------|-------|-------|-------|
   |-------|-------|-------|-------4---4-4-4-4-4---|-------|-------|
   2---2---2-2-2-4-|-4-4---4-4-4-4-4---4-4-4-4-4-6-|-4-4---4-4-4-4-|
   2---2---2-2-2-4-|-4-4---4-4-4-4-2---2-2-2-2-2-6-|-4-4---4-4-4-4-|
   0---0---0-0-0-2-|-2-2---2-2-2-2-|-------|-----4-|-2-2---2-2-2-2-|

   50                              51
   |-------|-------|-------|-------|-------|-------|-------|-------|
   |-------|-------|-------|-------|-------|-------|-------|-------|
   4---4-4-4-4-4---|-------|-------4---4-4-4-4-4---|-------|-------|
   4---4-4-4-4-4-6-|-4-4---4-4-4-4-4---4-4-4-4-4-6-|-4-4---4-4-4-4-|
   2---2-2-2-2-2-6-|-4-4---4-4-4-4-2---2-2-2-2-2-6-|-4-4---4-4-4-4-|
   |-------|-----4-|-2-2---2-2-2-2-|-------|-----4-|-2-2---2-2-2-2-|

   52                              53
   |-------|-------|-------|-------|-------|-------|-------|--------|
   |-------|-------|-------|-------|-------|-------|-------|--------|
   4---4-4-4-4-4---|-------|-------4~~~~~~~~~~~~~~~~~~~~~~~~~~~~~~~-|
   4---4-4-4-4-4-6-|-4-4---4-4-4-4-4~~~~~~~~~~~~~~~~~~~~~~~~~~~~~~~-|
   2---2-2-2-2-2-6-|-4-4---4-4-4-4-2~~~~~~~~~~~~~~~~~~~~~~~~~~~~~~~-|
   |-------|-----4-|-2-2---2-2-2-2-|-------|-------|-------|--------|

If you guys have any questions concerning this tab, let me know. If you want to correct 
something, post a comment. Otherwise enjoy, and hopefully you learn some Green Day \m/


   Template:
   x                               x
   |-------|-------|-------|-------|-------|-------|-------|-------|
   |-------|-------|-------|-------|-------|-------|-------|-------|
   |-------|-------|-------|-------|-------|-------|-------|-------|
   |-------|-------|-------|-------|-------|-------|-------|-------|
   |-------|-------|-------|-------|-------|-------|-------|-------|
   |-------|-------|-------|-------|-------|-------|-------|-------|
comments
We did not receive enough feedback on this tab! Please rate:
print report bad tab
1 2 3 4 5
I want to post or [tab]
guest
You may want to rate the tab now too:
select rating
Please do not post tabs as comments. Select "correction" instead!