Oops, an error
Loading. Please wait.

21 Guns Tab

version 2
14,052 views 48 this week
no commentswrite comment
1 2 3 4 5
excellent!
x 20
add to favorites
launch autoscroll
font size
0
reset
how to read this tab
guitar tuner
Tab Pro tools
  • play this tab
  • loop segment
  • change instrument
  • show fretboard
  • metronome
×
Best way to learn
"21 Guns"
Autoscroll
slow
fast
+/-
esc
set tempo
stop
Contributor
Difficulty
/= Slide
()=hold note
x= dead note, strum, don't let strings ring
p= pull off
*I take no credit, found this song on here:http://www.youtube.com/watch?v=725a2tikcIY *
I took the time to tab out this song because i thought it was nice.

INTRO 

|--------------------------||------------------------||-----------------------||------------------|
|------6----6----3----3----||-----10---10-5-----5----||---6----6----3----3----||-----10---10--5---|
|---------0----0----0----0-||--------0-------0----0--||-----0----0----0----0--||--------0---------|
|--------------------------||------------------------||-----------------------||------------------|
|------5---------1---------||-----8-------3----------||---5---------1---------||-----8--------3---|
|--------------------------||------------------------||-----------------------||------------------|

VERSE
|---1------------------||------------------------||---1------------------||-----------------------|
|-3----------3----3----||---1--------------------||-3----------3----3----||-------1---------------|
|-2----------3--3---3--||------3--2--0-----0-----||-2----------3--3---3--||--2/3-----0------0-----|
|-0----3--3------------||------------2--------2--||-0----3--3------------||--------------------0--|
|------------1---------||------------3---3-------||------------1---------||----------3---3--------|
|----------------------||------------------------||----------------------||-----------------------|

|---1------------------||------------------------||-----------------------||----------------------|
|-3----------3----3----||------------------------||-----------------------||----------------------|
|-2----------3--3---3--||-3/5--3--2--0-----2P0---||------------------2--0-||-(0)----0--------0----|
|-0----3--3------------||------------------------||-3------3----3---------||-----------2---2----0-|
|------------1---------||------------3---3-------||-1---1-----1----3----3-||-(3)-3-------3--------|
|----------------------||------------------------||-----------------------||----------------------|

|---1------------------||------------------------||----------------------||-----------------------|
|-3----------3----3----||-1----------------------||-3----------3----3----||-------1---------------|
|-2----------3--3---3--||----3--2--0-----0-------||-2--2-------3--3---3--||--2/3-----0------0-----|
|-0----3--3------------||----------2--------2----||-0----3--3------------||--------------------0--|
|------------1---------||----------3---3---------||------------1---------||----------3---3--------|
|----------------------||------------------------||----------------------||-----------------------|

|----------------------||-----------------------||------------------------||----------------------|
|------------3----3----||-----------------------||------------------------||----------------------|
|-2--2-------3--3---3--||-3/5--3--2--0-----2P0--||------------------2--0--||-(0)----0--------0----|
|-0----3--3------------||-----------------------||-3------3----3----------||-----------2---2------|
|------------1---------||------------3---3------||-1---1-----1----3----3--||-(3)-3-------3------0-|
|----------------------||-----------------------||------------------------||----------------------|

CHORUS
|-------------------1--||-------------------------||------------------------||---------------------|
|----------------1-----||----3-----1--------3-----||-3-----1----------------||---------------------|
|-----------2/3--------||-------2-----3--2--3--3--||----3-----3--2--0-------||-0---------0---------|
|-------------------0--||--0----------------------||------------------------||---2-----2---0-------|
|----------------------||-------------------1-----||----------------3--3--3-||------3--------------|
|--1-1-1-1-------------||-------------------------||------------------------||----------------1--1-|

|---------------1--------||----------------------||-----------------------||-----------------------|
|------------1--------3--||---1---------3----3---||-1---------------------||-----------------------|
|-------2/3--------------||-2---3---2---3--3---3-||---3--2--0--------0----||-----2P0---------------|
|---------------0---0----||----------------------||---------------------2-||---2-----3--3--3--3----|
|------------------------||-------------1--------||---------3--3--3-------||-3----------1--1--1--0-|
|-1--1-------------------||----------------------||-----------------------||---------------------0-|

|---------------------|
|---------------------|
|---------------0-----|
|------------x--2-----|
|------3--3--X--3-----|
|------1--1--X--------|

VERSE
|----------------------||------------------------||---------------------||-----------------------|
|-3--3-------3----3----||-1----------------------||-3--3-------3----3---||------1----------------|
|-2----------3--3---3--||----3--2--0-----0-------||-2----------3--3---3-||-2/3-----0------0------|
|-0----3--3------------||----------2--------2----||-0----3--3-----------||-------------------0---|
|------------1---------||----------3---3---------||------------1--------||---------3---3---------|
|----------------------||------------------------||---------------------||-----------------------|

|--------0-1------------||--------------------||------------------------||-----------------------|
|------3------3---1-----||--------------------||------------------------||-----------------------|
|--2-2------------2-----||--3--2--0------2P0--||------------------2--0--||-(0)----0--------0-----|
|--0--------------3-----||--------------------||-3------3----3----------||-----------2---2-------|
|-----------------------||--------3---3-------||-1---1-----1----3----3--||-(3)-3-------3------0--|
|-----------------------||--------------------||------------------------||-----------------------|

CHORUS 
|------------------1--||------------------------||-----------------------||----------------------|
|---------------1-----||----3-----1--------3----||-3-----1---------------||----------------------|
|----------2/3--------||----2--------3--2--3--3-||----3-----3--2--0------||--0---------0---------|
|------------------0--||-0-----0----------------||-----------------------||----2-----2---0-------|
|---------------------||-------------------1----||----------------3--3---||-------3--------------|
|-1-1-1-1-------------||------------------------||-----------------------||-----------------1--1-|

|---------------1------||-----------------------||-----------------------||----------------------|
|------------1---------||-3-----------3----3----||-1---------------------||----------------------|
|-------2/3------------||-2---3---2---3--3---3--||---3--2--0--------0----||-----2P0--------------|
|---------------0---0--||---0-------------------||---------------------2-||---2-----3--3--3--3---|
|----------------------||-------------1---------||---------3--3----------||-3----------1--1--1--0|
|-1--1-----------------||-----------------------||-----------------------||---------------------0|

|----------------------||---------------------|
|----------------------||---------------------|
|-----------0--0--0----||-----------0---------|
|--------x--2--2--2----||--------2--2--0------|
|--3--3--X--3--3--3----||--3--3--3--3---------|
|--1--1--X-------------||---------------------|

ENDING
|-----------------------||----------------------||-----------------------||-------------------|
|---6----6----3----3----||--10---10-5-----5-----||---6----6----3----3----||---10---10--5------|
|------0----0----0----0-||-----0-------0----0---||-----0----0----0----0--||------0------------|
|-----------------------||----------------------||-----------------------||-------------------|
|---5---------1---------||--8-------3-----------||---5---------1---------||---8--------3------|
|-----------------------||----------------------||-----------------------|--------------------|

*THESE CHORDS SOUND GOOD WITH THE SONG* I.E: A DUET
*I GOT THESE TABS FROM HERE AS WELL, I TAKE NO CREDIT*

Capo 5th

Intro: Am - F - C - G (x2)

Verse:
Am     F                C        G
Do you know what's worth fighting for,
Am        F        C      G
When it's not worth dying for?
Am      F        C      G
Does it take your breath away
F                         G
And you feel yourself suffocating?
Am       F         C       G
Does the pain weigh out the pride?
Am        F       C        G
And you look for a place to hide?
Am      F             C      G
Did someone break your heart inside?
F                        G
You're in ruins

C    G    A
One, 21 guns
G             F
Lay down your arms
C           G
Give up the fight
C    G    A5
One, 21 guns
G             F   C        G 
Throw up your arms into the sky,
F    C     G
You and I


Am          F     C          G
When you're at the end of the road
Am      F       C        G
And you lost all sense of control
Am        F           C           G
And your thoughts have taken their toll
F                                       G
When your mind breaks the spirit of your soul
Am   F             C      G
Your faith walks on broken glass
Am      F       C       G
And the hangover doesn't pass
Am        F   C        G
Nothing's ever built to last
F                 G
You're in ruins.


C    G    A
One, 21 guns
G             F
Lay down your arms
C           G
Give up the fight
C    G    A5
One, 21 guns
G             F   C        G 
Throw up your arms into the sky,
F    C     G
You and I


Am      F     C            G
Did you try to live on your own
Am       F               C        E
When you burned down the house and home?
Am      F         C           E
Did you stand too close to the fire?
Fm                          G
Like a liar looking for forgiveness from a stone


C - G - A - G - F - C - G (x2)
F - C - B
Am - F - C - G (x2)


Am        F       C           G
When it's time to live and let die
Am      F        C       G
And you can't get another try
Am         F         C         G
Something inside this heart has died
F                 G
You're in ruins.


C    G    A
One, 21 guns
G             F
Lay down your arms
C           G
Give up the fight
C    G    A
One, 21 guns
G             F   C       G 
Throw up your arms into the sky
C    G    A
One, 21 guns
G             F
Lay down your arms
C           G
Give up the fight
C    G    A
One, 21 guns
G             F   C        G
Throw up your arms into the sky,
F    C     G 
You and I


*this song if for Richard,Brian,Justin and Lequisha lol*
comments
print report bad tab
I want to post or [tab]
guest
You may want to rate the tab now too:
select rating
Please do not post tabs as comments. Select "correction" instead!