Oops, an error
Loading. Please wait.

21 Guns Bass Tab

version 1
364,884 views 414 this week
9 commentsread comments
1 2 3 4 5
excellent!
x 53
add to favorites
launch autoscroll
font size
0
reset
guitar tuner
Tab Pro tools
  • play this tab
  • loop segment
  • change instrument
  • show fretboard
  • metronome
×
Best way to learn
"21 Guns"
Autoscroll
slow
fast
+/-
esc
set tempo
stop
Contributor
Song: 21 Guns
Artist: Green Day
CD: 21st Century Breakdown
Tuning: Standard

This is my first ever tab so if it’s not good I’m sorry. Anyways, I think I got 
most of it right and it seems to go good with the song.

Verse (Start at :40) (the 11 are 1’s not 11’s)
G|---------------------------------------------------------------------------|
D|---------------------------------------------------------------------------|
A|-5-5-11-----33--5-5-11-----33--5-5-11-----33--1~-----3---------------------|
E|--------1-1------------1-1------------1-1----------------------------------|

Chorus
G|---------------------------------------------------------------------------|
D|---------------------------------------------------------------------------|
A|-------------5-5---3-3-3-3--1-1-1-1---------3-3-3-3-3-3-3-3----------------|x2
E|-1-1---0-0--------------------------1-1-1-1--------------------------------|

G|---------------------------------------------------------------------------|
D|---------------------------------------------------------------------------|
A|-1-1-1-1---------3~--------------------------------------------------------|
E|---------1-1-1-1-----------------------------------------------------------|

Verse
G|---------------------------------------------------------------------------|
D|---------------------------------------------------------------------------|
A|-5-5-11-----33--5-5-11-----33--5-5-11-----33-------------------------------|x3
E|--------1-1------------1-1------------1-1----------------------------------|

G|---------------------------------------------------------------------------|
D|---------------------------------------------------------------------------|
A|---------------------------------------------------------------------------|
E|-6-6-666--8-8-888----------------------------------------------------------|

G|---------------------------------------------------------------------------|
D|---------------------------------------------------------------------------|
A|-5-5-11-----33--5-5-11-----33--5-5-11-----33-------------------------------|x3
E|--------1-1------------1-1------------1-1----------------------------------|

G|---------------------------------------------------------------------------|
D|---------------------------------------------------------------------------|
A|-5-5-11-----33--5-5-11-----33--5-5-11-----33--1~-----3---------------------|
E|--------1-1------------1-1------------1-1----------------------------------|

Chorus
G|---------------------------------------------------------------------------|
D|---------------------------------------------------------------------------|
A|------------5-5--3-3-3-3--1-1-1-1---------3-3-3-3-3-3-3-3------------------|x2
E|-1-1--0-0-------------------------1-1-1-1----------------------------------|

G|---------------------------------------------------------------------------|
D|---------------------------------------------------------------------------|
A|-1-1-1-1---------3-3-3-3-3-3-3-3-------------------------------------------|
E|---------1-1-1-1-----------------------------------------------------------|

Bridge
G|---------------------------------------------------------------------------|
D|---------------------------------------------------------------------------|
A|-5-5--1-1-------3-3-3-3--5-5--1-1-----------0-0-0-0------------------------|
E|-----------1-1---------------------1-1-1-1---------------------------------|

G|---------------------------------------------------------------------------|
D|---------------------------------------------------------------------------|
A|-5-5--1-1-----------0-0-0-0--1-1-1-1-1-1-1-1--3-3-3-3-3-3-3-3--------------|
E|-----------1-1-1-1---------------------------------------------------------|

Solo
G|---------------------------------------------------------------------------|
D|---------------------------------------------------------------------------|
A|-------------------5-5-5-5--3-3-3-3--1-1-1-1-----------3-3-3-3-3-3-3-3-----|x2
E|-1-1-1-1--0-0-0-0-----------------------------1-1-1-1----------------------|

G|---------------------------------------------------------------------------|
D|---------------------------------------------------------------------------|
A|-1-1-1-1-----------0-0-0-0-0-0-0-0-----------------------------------------|
E|----------1-1-1-1----------------------------------------------------------|

Chorus
G|---------------------------------------------------------------------------|
D|---------------------------------------------------------------------------|
A|------------5-5--3-3-3-3--1-1-1-1---------3-3-3-3-3-3-3-3------------------|x4
E|-1-1--0-0-------------------------1-1-1-1----------------------------------|

G|---------------------------------------------------------------------------|
D|---------------------------------------------------------------------------|
A|-1-1-1-1---------3~--------------------------------------------------------|
E|---------1-1-1-1-----------------------------------------------------------|
comments
print report bad tab
9 comments total. Showing first comments. show 1 bad comment
+5 reply
JabyMason wrote on June 28 2009, 07:04 am

It seems pretty acurate, well done.

+5 reply
Recordflug wrote on July 3 2009, 11:49 am

you're awsome mate! thanks =D

I want to post or [tab]
guest
You may want to rate the tab now too:
select rating
Please do not post tabs as comments. Select "correction" instead!