Oops, an error
Loading. Please wait.

21 Guns Chords

2,440,770 views 402 this week
25 commentsread comments
1 2 3 4 5
not so good
x 215
add to favorites
launch autoscroll
font size
0
reset
transpose
0
reset
simplify chords
display chords
guitar tuner
Autoscroll
slow
fast
+/-
esc
set tempo
stop
Help us to improve Ultimate-Guitar.com Take our survey!
×
Author
-------------------------------------------------------------------------------
                             21 Guns - Green Day
-------------------------------------------------------------------------------
Tabbed by: Adam K.
Email: phixsmusic2@yahoo.com


I can't guarantee that this is perfect, but I can guarantee that this is my first tab ever!

Great song; sorry I didn't post the lead, I'm not very good at hearing lead.
Figuring this out took me a while as it is. Any questions, you can email me.


Rise Against is the best band ever!
(Except for that crappy last album, "Appeal to Reason", RPM is where it's at!!!!)

Chords used:
           (Fmaj)   (A#m/A5) (Cmaj)
e|-----------1-------1-------0------------------------------------------------|
B|-----------1-------3-------1------------------------------------------------|
G|-----------2-------3---3---0------------------------------------------------|
D|-----------3-------3---3---2------------------------------------------------|
A|-----------3-------1---1---3------------------------------------------------|
E|-----------1-------1-------X------------------------------------------------|


Tuning: Standard (Low to High) EADGBe


[Verse]

(Just in case it's hard to read, it's all Fmaj, A#, C in the verse
Listen to the song for the rhythm. [Stay on Fmaj and A# for 1 measure, 2 measures for C]
End on Fmaj on "You're in ruins...")


Fmaj   A#m                         C               A#m          C
Do you know what's worth fighting for? When it's not worth dying for

Fmaj    A#m           C                                   A#m              C
Does it take your breath away? And you feel yourself suffocating

Fmaj       A#m            C                      A#m           C
Does the pain weigh out the pride? And you look for a place to hide?

Fmaj      A#m                        C                        Fmaj
Did someone break your heart inside? You're in ruins...


      C5
e|------------|
B|------------|
G|-----5------|
D|-----5------|
A|-----3------|
E|------------|


[Chorus]

e|------------------------------------------------------------------------------|
B|------------------------------------------------------------------------------|
G|--------- 55 ----77----555\-----33333333 55555555------------------ - --------|
D|----33----55-----77----555\-----33333333 55555555-----------------------------|
A|----33----33-----55----333\-----11111111 33333333-----------------------------|
E|----11------------------------------------------------------------------------|


e|------------------------------------------------------------------------------|
B|------------------------------------------------------------------------------|
G|--------- 55 ----77----555\-----33333333 55555555 33333333 5----- - ----------|
D|----33----55-----77----555\-----33333333 55555555 33333333 5------------------|
A|----33----33-----55----333\-----11111111 33333333 11111111 3------------------|
E|--- 11------------------------------------------------------------------------|

One, 21 guns
Lay down your arms
Give up the fight
One, 21 guns
Throw up your arms into the sky
You and I


[Verse]

Fmaj         A#m                         C                 A#m          C
When you're at the end of the road, and you lost all sense of control...

Fmaj      A#m                       C                         Fmaj            A#mC
And your thoughts have taken their toll, when your mind breaks the spirit of your soul...

Fmaj  A#m                C                 Fmaj      A#m           C
Your faith walks on broken glass, and the hangover doesn't pass...

Fmaj      A#m                     C                Fmaj
Nothing's ever built to last, you're in ruins...

      C5
e|------------|
B|------------|
G|-----5------|
D|-----5------|
A|-----3------|
E|------------|


[Chorus]

e|------------------------------------------------------------------------------|
B|------------------------------------------------------------------------------|
G|--------- 55 ----77----555\-----33333333 55555555------------------ - --------|
D|----33----55-----77----555\-----33333333 55555555-----------------------------|
A|----33----33-----55----333\-----11111111 33333333-----------------------------|
E|----11------------------------------------------------------------------------|


e|-----------------------------------------------------------------------------------|
B|-----------------------------------------------------------------------------------|
G|--------- 55 ----77----555\-----33333333 55555555 33333333 55555555----- - --------|
D|----33----55-----77----555\-----33333333 55555555 33333333 55555555----------------|
A|----33----33-----55----333\-----11111111 33333333 11111111 33333333----------------|
E|----11-----------------------------------------------------------------------------|

One, 21 guns
Lay down your arms
Give up the fight
One, 21 guns
Throw up your arms into the sky
You and I


[Bridge]

e|-----------------------------------------------------------------------------|
B|-----------------------------------------------------------------------------|
G|----77---33---55---3355----77---33----5555---3322----------------------------|
D|----77---33---55---3355----77---33----5555---3322----------------------------|
A|----55---11---33---1133----55---11----3333---1100----------------------------|
E|-----------------------------------------------------------------------------|


e|-----------------------------------------------------------------------------|
B|-----------------------------------------------------------------------------|
G|----77---33---5555---3333----77777777---55555555-----------------------------|
D|----77---33---5555---3333----77777777---55555555-----------------------------|
A|----55---11---3333---1111----55555555---33333333-----------------------------|
E|-----------------------------------------------------------------------------|


Did you try to live on your own, when you burned down the house and home?
Did you stand too close to the fire? Like a liar looking for forgiveness from a stone

e|-------------------------------------------------------------------------------|
B|-------------------------------------------------------------------------------|
G|--------- --5555 --7777----5555-----33333333 55555555------------------ - -----|
D|----3333----5555---7777----5555-----33333333 55555555--------------------------|
A|----3333----3333---5555----3333-----11111111 33333333--------------------------|
E|----1111-----------------------------------------------------------------------|


e|--------------------------------------------------------------------------|
B|--------------------------------------------------------------------------|
G|--------- --5555 --7777----5555-----33333333 55555555---3333333322222222--|
D|----3333----5555---7777----5555-----33333333 55555555---3333333322222222--|
A|----3333----3333---5555----3333-----11111111 33333333---1111111100000000--|
E|----1111------------------------------------------------------------------|

Fmaj      A#m                            C     Fmaj  A#m         C

When it's time to live and let die, and you can't get another try


Fmaj      A#m                  C                        Fmaj

Something inside this heart has died, you're in ruins...


[Chorus]

e|------------------------------------------------------------------------------|
B|------------------------------------------------------------------------------|
G|----------55-----77----555\-----33333333 55555555------------------ - --------|
D|----33----55-----77----555\-----33333333 55555555-----------------------------|
A|----33----33-----55----333\-----11111111 33333333-----------------------------|
E|----11------------------------------------------------------------------------|


e|------------------------------------------------------------------------------|
B|------------------------------------------------------------------------------|
G|--------- 55 ----77----555\-----33333333 55555555------------------ - --------|
D|----33----55-----77----555\-----33333333 55555555-----------------------------|
A|----33----33-----55----333\-----11111111 33333333-----------------------------|
E|----11------------------------------------------------------------------------|

e|------------------------------------------------------------------------------|
B|------------------------------------------------------------------------------|
G|--------- 55 ----77----555\-----33333333-55555555------------------ - --------|
D|----33----55-----77----555\-----33333333-55555555-----------------------------|
A|----33----33-----55----333\-----11111111-33333333-----------------------------|
E|--- 11------------------------------------------------------------------------|


e|------------------------------------------------------------------------------|
B|------------------------------------------------------------------------------|
G|--------- 55 ----77----555\-----33333333-55555555-33333333-5----- - ----------|
D|----33----55-----77----555\-----33333333-55555555-33333333-5------------------|
A|----33----33-----55----333\-----11111111-33333333-11111111-3------------------|
E|--- 11------------------------------------------------------------------------|

One, 21 guns
Lay down your arms
Give up the fight
One, 21 guns
Throw up your arms into the sky
You and I 

************************************

| \  Slide down 

************************************
Suggest correction
What's this?
You can suggest a correction to this tab. Community and Mods will review your correction and vote to approve or reject it.
comments
print report bad tab
25 comments total. Showing first comments. show 1 bad comment
+3 reply
vegkaar 85 wrote on May 7 2009, 07:20 pm

I think Dmajor, Bflat, F, C then Dmajor, Bflat, F, C, Bflat, F, C
then from the 1st to Bflat before chorus is more correct.

Don't know, but the chorus seems fine

+7 reply
desedfgh 35 wrote on May 17 2009, 01:01 pm

its Dminor, Bflat, F, then C

guest
You may want to rate the tab now too:
select rating
Please do not post tabs as comments. Select "correction" instead!