Oops, an error
Loading. Please wait.

21 Guns Tab

2,934,177 views 1,698 this week
141 commentsread comments
1 2 3 4 5
excellent!
x 586
add to favorites
launch autoscroll
font size
0
reset
how to read this tab
guitar tuner
Tab Pro tools
  • play this tab
  • loop segment
  • change instrument
  • show fretboard
  • metronome
×
Best way to learn
"21 Guns"
Autoscroll
slow
fast
+/-
esc
set tempo
stop
[INTRO]

e|-----1-----------5---------|
B|----------3------------5---|
G|---------------------------|
D|---------------------------|
A|---------------------------|
E|---------------------------|


[VERSE]

(Play it with Chords)
Dm       A#                F        C
  Do you know what's worth fighting for,
Dm          A#        F     C
  When it's not worth dying for?
Dm        A#        F      C
  Does it take your breath away
         A#                C
And you feel yourself suffocating?

Dm         A#         F        C
  Does the pain weigh out the pride?
Dm        A#          F        C
  And you look for a place to hide?
Dm        A#             F      C
  Did someone break your heart inside?
 A#
You're in ruins


[CHORUS]

One, 21 guns
Lay down your arms
Give up the fight
One, 21 guns
Throw up your arms into the sky,
You and I


e|-----|------------------------------------------------------------|       
B|-----|------------------------------------------------------------|      
G|--5--|------------7-7--5-5-5-5--3-3-3-3----------5-5-5-5-5-5-5-5--|      
D|--5--|--3-3--2-2--7-7--5-5-5-5--3-3-3-3-3-3-3-3--5-5-5-5-5-5-5-5--| 
A|--3--|--3-3--3-3--5-5--3-3-3-3--1-1-1-1-3-3-3-3--3-3-3-3-3-3-3-3--|       
E|-----|--1-1--0-0------------------------1-1-1-1-------------------|       
                                                            
e|------------------------------------------------------------|-------------------|
B|------------------------------------------------------------|-------------------|
G|------------7-7--5-5-5-5--3-3-3-3----------5-5-5-5-5-5-5-5--|3-3-3-3---------5--|
D|--3-3--2-2--7-7--5-5-5-5--3-3-3-3-3-3-3-3--5-5-5-5-5-5-5-5--|3-3-3-3-3-3-3-3-5--|
A|--3-3--3-3--5-5--3-3-3-3--1-1-1-1-3-3-3-3--3-3-3-3-3-3-3-3--|1-1-1-1-3-3-3-3-3--|
E|--1-1--0-0------------------------1-1-1-1-------------------|--------1-1-1-1----|


[VERSE]

Dm          A#     F          C
  When you're at the end of the road
Dm        A#       F             C
  And you lost all sense of control
Dm        A#            F            C
 And your thoughts have taken their toll
         A#                              C
When your mind breaks the spirit of your soul
Dm     A#             F        C
  Your faith walks on broken glass
Dm         A#      F        C
  And the hangover doesn't pass
Dm          A#   F         C
  Nothing's ever built to last
 A#
You're in ruins.


[CHORUS]

One, 21 guns
Lay down your arms
Give up the fight
One, 21 guns
Throw up your arms into the sky,
You and I

e|-----|------------------------------------------------------------|       
B|-----|------------------------------------------------------------|      
G|--5--|------------7-7--5-5-5-5--3-3-3-3----------5-5-5-5-5-5-5-5--|      
D|--5--|--3-3--2-2--7-7--5-5-5-5--3-3-3-3-3-3-3-3--5-5-5-5-5-5-5-5--| 
A|--3--|--3-3--3-3--5-5--3-3-3-3--1-1-1-1-3-3-3-3--3-3-3-3-3-3-3-3--|       
E|-----|--1-1--0-0------------------------1-1-1-1-------------------|       
                                                            
e|------------------------------------------------------------|---------------------------------|
B|------------------------------------------------------------|---------------------------------|
G|------------7-7--5-5-5-5--3-3-3-3----------5-5-5-5-5-5-5-5--|3-3-3-3---------5-5-5-5-5-5-5-5-5|
D|--3-3--2-2--7-7--5-5-5-5--3-3-3-3-3-3-3-3--5-5-5-5-5-5-5-5--|3-3-3-3-3-3-3-3-5-5-5-5-5-5-5-5-5|
A|--3-3--3-3--5-5--3-3-3-3--1-1-1-1-3-3-3-3--3-3-3-3-3-3-3-3--|1-1-1-1-3-3-3-3-3-3-3-3-3-3-3-3-3|
E|--1-1--0-0------------------------1-1-1-1-------------------|--------1-1-1-1------------------|



[BRIDGE]

Did you try to live on your own
When you burned down the house and home?
Did you stand too close to the fire?
Like a liar looking for forgiveness from a stone

e|--------------------------|------------------------------|   
B|--------------------------|------------------------------|  
G|--7-7--3-3-------5-5-5-5--|--7-7--3-3-----------2-2-2-2--| 
D|--7-7--3-3--3-3--5-5-5-5--|--7-7--3-3--3-3-3-3--2-2-2-2--| x2
A|--5-5--1-1--3-3--3-3-3-3--|--5-5--1-1--3-3-1-1--0-0-0-0--|   
E|------------1-1-----------|------------1-1-1-1-----------|   

e|---------------------------------------|
B|---------------------------------------|
G|--3-3-3-3-3-3-3-3--5-5-5-5-5-5-5-5-----|
D|--3-3-3-3-3-3-3-3--5-5-5-5-5-5-5-5-----|
A|--1-1-1-1-1-1-1-1--3-3-3-3-3-3-3-3-----|
E|---------------------------------------|


[GUITAR SOLO]

e|----5----5-----------------------------------------|  
B|--6--6-8---6---6-----6-----3----------5-5-5-5-6-8--|  
G|-------------7---7-9---7-3---3-5-3-2---------------|   
D|---------------------------------------------------| x2
A|---------------------------------------------------|   
E|---------------------------------------------------|   

e|--------------------------------|
B|----3----------5-5-5-5-5-5-5-5--|
G|--3---3-5-3-2-------------------|
D|--------------------------------|
A|--------------------------------|
E|--------------------------------|


[Instrumental]

e|-----1-----------5---------|
B|----------3------------5---|
G|---------------------------| x2
D|---------------------------|
A|---------------------------|
E|---------------------------|


[VERSE]

Dm          A#       F           C
  When it's time to live and let die
Dm        A#         F       C
  And you can't get another try
Dm           A#          F        C
  Something inside this heart has died
A#
You're in ruins.


[CHORUS]

One, 21 guns
Lay down your arms
Give up the fight
One, 21 guns
Throw up your arms into the sky,
You and I

e|------------------------------------------------------------|
B|------------------------------------------------------------|
G|------------7-7--5-5-5-5--3-3-3-3----------5-5-5-5-5-5-5-5--|x3
D|--3-3--2-2--7-7--5-5-5-5--3-3-3-3-3-3-3-3--5-5-5-5-5-5-5-5--|
A|--3-3--3-3--5-5--3-3-3-3--1-1-1-1-3-3-3-3--3-3-3-3-3-3-3-3--|
E|--1-1--0-0------------------------1-1-1-1-------------------|

e|-------------------|
B|-------------------|
G|3-3-3-3---------5--|
D|3-3-3-3-3-3-3-3-5--|
A|1-1-1-1-3-3-3-3-3--|
E|--------1-1-1-1----|
comments
print report bad tab
141 comments total. Showing first comments.
+2 reply
LFC137 wrote on May 12 2009, 12:55 pm

Great tab (Y)

+1 reply
cyxap' wrote on May 14 2009, 10:43 am

not bad at all

great song xD

+16 reply
fluidkarma wrote on May 16 2009, 12:09 pm

Awesome tab homeslice...when i first heard this song it gave me shivers the way "wake me up when september ends" did when i first heard it!

I want to post or [tab]
guest
You may want to rate the tab now too:
select rating
Please do not post tabs as comments. Select "correction" instead!