Oops, an error
Loading. Please wait.
We have an official 21 Guns tab made by UG professional guitarists. Check out the tab »
×

21 Guns tab

version 15
version 15

Whole song

Video

1,210 views 1 this week
no commentswrite comment
1 2 3 4 5
x 3
add to favorites
×
Save as Personal and add changes to this tab that will be seen only by you. Learn more ›
×
You can save this tab as Personal to edit and correct it or add notes. All changes will be seen only by you. Learn more »
launch autoscroll
font size
0
reset
how to read this tab
guitar tuner
backing track
0:00
0:00
edit
Autoscroll
slow
fast
+/-
esc
set tempo
stop
About this tab version
This is the vocal melody tabbed for guitar. Was this info helpful? Yes No
Artist : Green Day
Song : 21 Guns
Album : 21 Century Breakdown
Release date : 2009
Produced by : Butch Vig, Green Day

  Do you know what's worth fighting for
E|----------------------------|
B|-------1/3--3\1--1----------|
G|--------------------3--2--0-|
D|-3--3-----------------------|
A|----------------------------|
E|----------------------------|

  When it's not worth dying for?
E|----------------------------|
B|-------1/3--3\1--------1----|
G|-----------------2--3-----0-|
D|-3--3-----------------------|
A|----------------------------|
E|----------------------------|

  Does it take your breath away
E|----------------------------|
B|-------1/3--3--1------------|
G|------------------3--2--0---|
D|-3--3-----------------------|
A|----------------------------|
E|----------------------------|

  And you feel yourself suffocating
E|------------------------------------|
B|------------------------------------|
G|-2-0----------------------2--0/2--0-|
D|-------3/5\3--3--0--3--0------------|
A|------------------------------------|
E|------------------------------------|

  Does the pain weigh out the pride?
E|----------------------------|
B|-------1/3--3\1--1----------|
G|--------------------3--2--0-|
D|-3--3-----------------------|
A|----------------------------|
E|----------------------------|

  And you look for a place to hide
E|--------------------------|
B|-------1/3--3--------1----|
G|---------------2--3-----0-|
D|-3--3---------------------|
A|--------------------------|
E|--------------------------|

  Did someone break your heart inside
E|-----------------------------|
B|-------1/3--3--1--1----------|
G|---------------------3--2--0-|
D|-3--3------------------------|
A|-----------------------------|
E|-----------------------------|

  You're in ruins
E|--------------------------------|
B|--------------------------------|
G|-2-0----------------------------|
D|------3/5\3---Let this one ring-|
A|--------------------------------|
E|--------------------------------|

  One, 21 Guns
E|---------------1-|
B|------------1----|
G|---------2-------|
D|-3----2----------|
A|-----------------|
E|-----------------|

  Lay down your arms, Give up the fight
E|--------------------------------|
B|-1--------1/3----1--------------|
G|----2---------------3--2--0/2\0-|
D|-------3------------------------|
A|--------------------------------|
E|--------------------------------|

  One, 21 Guns
E|---------------1-|
B|------------1----|
G|---------2-------|
D|-3----2----------|
A|-----------------|
E|-----------------|

  Throw up your arms into the sky, You and I...
E|-----------------------------------------------|
B|-1--------1/3----1-----------------------------|
G|----2---------------3--2--0/2\0----2--0--------|
D|-------3---------------------------------3/5\3-|
A|-----------------------------------------------|
E|-----------------------------------------------|

  When you're at the end of the road
E|----------------------------|
B|-------1/3--3\1--1----------|
G|--------------------3--2--0-|
D|-3--3-----------------------|
A|----------------------------|
E|----------------------------|

  And you lost all sense of control
E|----------------------------|
B|-------1/3--3\1--------1----|
G|-----------------2--3-----0-|
D|-3--3-----------------------|
A|----------------------------|
E|----------------------------|

  And your thoughts have taken their toll
E|----------------------------|
B|-------1/3--3--1------------|
G|------------------3--2--0---|
D|-3--3-----------------------|
A|----------------------------|
E|----------------------------|

  When your mind breaks the spirit of your soul
E|---------------------------------------|
B|---------------------------------------|
G|-2-0-------------------------2--0/2--0-|
D|-------3/5\3--3--0--3--0--3------------|
A|---------------------------------------|
E|---------------------------------------|

  Your faith walks on broken glass
E|----------------------------|
B|-------1/3--3\1--1----------|
G|--------------------3--2--0-|
D|-3--3-----------------------|
A|----------------------------|
E|----------------------------|

  And the hangover doesn't pass
E|--------------------------|
B|-------1/3--3--------1----|
G|---------------2--3-----0-|
D|-3--3---------------------|
A|--------------------------|
E|--------------------------|

  Nothing's ever built to last
E|------------------------|
B|-3--5--6--3--1----------|
G|----------------3--2--0-|
D|------------------------|
A|------------------------|
E|------------------------|

  You're in ruins
E|--------------------------------|
B|--------------------------------|
G|-2-0----------------------------|
D|------3/5\3---Let this one ring-|
A|--------------------------------|
E|--------------------------------|

  One, 21 Guns
E|---------------1-|
B|------------1----|
G|---------2-------|
D|-3----2----------|
A|-----------------|
E|-----------------|

  Lay down your arms, Give up the fight
E|--------------------------------|
B|-1--------1/3----1--------------|
G|----2---------------3--2--0/2\0-|
D|-------3------------------------|
A|--------------------------------|
E|--------------------------------|

  One, 21 Guns
E|---------------1-|
B|------------1----|
G|---------2-------|
D|-3----2----------|
A|-----------------|
E|-----------------|

  Throw up your arms into the sky, You and I...
E|-----------------------------------------------|
B|-1--------1/3----1-----------------------------|
G|----2---------------3--2--0/2\0----2--0--------|
D|-------3---------------------------------3/5\3-|
A|-----------------------------------------------|
E|-----------------------------------------------|

  Did you try to live on your own
E|---------------------------|
B|-3--5--6---3\1--1----------|
G|-------------------3--2--0-|
D|---------------------------|
A|---------------------------|
E|---------------------------|

  When you burned down the house and home
E|----------------------------|
B|-3--5--6---3---3--1--1--1/2-|
G|----------------------------|
D|----------------------------|
A|----------------------------|
E|----------------------------|

  Did you stand too close to the fire?
E|----------------------------|
B|-3--5--6---3---1--1--1--1/2-|
G|----------------------------|
D|----------------------------|
A|----------------------------|
E|----------------------------|

  Like a liar looking for forgiveness from a stone
E|----------------------------------------------|
B|-2-2--2/3--3--3--1--3---6--5/6--5----3---5--6-|
G|----------------------------------------------|
D|----------------------------------------------|
A|----------------------------------------------|
E|----------------------------------------------|

  When it's time to live and let die
E|----------------------------|
B|-------1/3--3\1--1----------|
G|--------------------3--2--0-|
D|-3--3-----------------------|
A|----------------------------|
E|----------------------------|

  And you can't get another try
E|----------------------------|
B|-------1/3--3-1--------1----|
G|-----------------2--3-----0-|
D|-3--3-----------------------|
A|----------------------------|
E|----------------------------|

  Something inside this heart has died
E|---------------------------|
B|-3--5--6--3--3--1----------|
G|-------------------3--2--0-|
D|---------------------------|
A|---------------------------|
E|---------------------------|

  You're in ruins
E|--------------------------------|
B|--------------------------------|
G|-2-0----------------------------|
D|------3/5\3---Let this one ring-|
A|--------------------------------|
E|--------------------------------|

  One, 21 Guns
E|---------------1-|
B|------------1----|
G|---------2-------|
D|-3----2----------|
A|-----------------|
E|-----------------|

  Lay down your arms, Give up the fight
E|--------------------------------|
B|-1--------1/3----1--------------|
G|----2---------------3--2--0/2\0-|
D|-------3------------------------|
A|--------------------------------|
E|--------------------------------|

  One, 21 Guns
E|---------------1-|
B|------------1----|
G|---------2-------|
D|-3----2----------|
A|-----------------|
E|-----------------|

  Throw up your arms into the sky
E|--------------------------------|
B|-1--------1/3----1--------------|
G|----2---------------3--2--0/2\0-|
D|-------3------------------------|
A|--------------------------------|
E|--------------------------------|

  One, 21 Guns
E|---------------1-|
B|------------1----|
G|---------2-------|
D|-3----2----------|
A|-----------------|
E|-----------------|

  Lay down your arms, Give up the fight
E|--------------------------------|
B|-1--------1/3----1--------------|
G|----2---------------3--2--0/2\0-|
D|-------3------------------------|
A|--------------------------------|
E|--------------------------------|

  One, 21 Guns
E|---------------1--3\1-|
B|------------1---------|
G|---------2------------|
D|-3----2---------------|
A|----------------------|
E|----------------------|

  Throw up your arms into the sky, You and I
E|-----------------------------------------------|
B|-1--------1/3----1-----------------------------|
G|----2---------------3--2--0/2\0----2--0--------|
D|-------3---------------------------------3/5\3-|
A|-----------------------------------------------|
E|-----------------------------------------------|


**************************

|  /  =  slide down
|  \  =  slide up

**************************

            
            
Suggest correction
Creating personal tab
Creating personal tab
You can edit any tab online and save it as your Personal.

You can edit, replace or remove any tab part or add personal notes – all changes will be seen only by you.

Personal tabs can be accessed anytime from any device, even offline.
Learn more »
Give kudos to tab author, rate the tab!
1 2 3 4 5
comments
print report bad tab
guest
You may want to rate the tab now too:
select rating
Wanna post a correction for this tab? Suggest correction