Oops, an error
Loading. Please wait.

21 Guns Tab

version 3
version 3

Video

59,965 views 15 this week
no commentswrite comment
1 2 3 4 5
x 5
add to favorites
launch autoscroll
font size
0
reset
how to read this tab
guitar tuner
×
Best way to learn
"21 Guns"
Autoscroll
slow
fast
+/-
esc
set tempo
stop
I'm sure they play it in standard but i'm too lazy to retune my guitar even tho it'd be easier
to play cuz you could play open chords..
but whatever i'm tabbing it a half step down.


Verse chords. Listen to song for rythym it's not hard to figure out.

Clean/Acoustic
E--6--2--2--4----------------2--|
B--7--2--2--4----------------2--|
G--8--4--3--6--X7------------4--|Turn the volume knob down on your guitar
D--8--4--4--6----------------4--|Then turn on distortion and slowly turn
A--6--2--4--4-last time play-2--|It back up kinda fading it into the chorus
E--x--x--2--x----------------x--|


Chorus.

Distorted
E-2----------------------------------------------------------------------|
B-2---------------------------------------------------------6-7-9~-------|
G-4----------------8-8---6-6-6-6--4-4-4-4-----------6-6-6-6-6-6-6-6--X2--|
D-4----4-4---4-4---8-8---6-6-6-6--4-4-4-4--4-4-4-4--6-6-6-6-6-6-6-6------|
A-2----4-4---4-4---6-6---4-4-4-4--2-2-2-2--4-4-4-4--4-4-4-4-4-4-4-4------|
E-x----2-2---1-1---------------------------2-2-2-2-----------------------|


E---------------------------|
B---------------------------|
G--4-4-4-4-----------6------|
D--4-4-4-4--4-4-4-4--6------|
A--2-2-2-2--4-4-4-4--4------|
E-----------2-2-2-2---------|


Bridge

Distorted
E--------------------------------------------------------|
B--------------------------------------------------------|
G--8-8---4-4---------6-6-6-6--8-8---2-2---------3-3-3-3--|
D--8-8---4-4---4-4---6-6-6-6--8-8---2-2---4-4---3-3-3-3--|
A--6-6---2-2---4-4---4-4-4-4--6-6---4-4---4-4---1-1-1-1--|
E--------------2-2------------------------2-2------------|


Solo. This is probably completely wrong.

E------------6-------------------------------------------------|
B----7-9-6-9---7----4-7-4-6-7-4----4---2-----6-6-6-6-6-7-9-----|
G--6-----------------------------4---4---3---------------------|
D------------------------------------------4-------------------|
A--------------------------------------------------------------|
E--------------------------------------------------------------|

E------------6-------------------------------------------9b11--|
B----7-9-6-9---7----4-7-4-6-7-4----4---2-----6-6-6-6-6-7-------|
G--6-----------------------------4---4---3---------------------|
D------------------------------------------4-------------------|
A--------------------------------------------------------------|
E--------------------------------------------------------------|

E--------------------------------------------------------------|
B----4----2-----6-6-6-6-6-6-6-6----------7-4-11-6----7-4-11-6--|
G------4----3--------------------------------------------------|
D--4-----4----4------------------------------------------------|
A--------------------------------------------------------------|
E--------------------------------------------------------------|
Suggest correction
comments
print report bad tab
guest
You may want to rate the tab now too:
select rating
Wanna post a correction for this tab? Suggest correction