Oops, an error
Loading. Please wait.

21 Guns Bass Tab

version 5
4,823 views 36 this week
1 commentread comment
1 2 3 4 5
excellent!
x 5
add to favorites
launch autoscroll
font size
0
reset
guitar tuner
Tab Pro tools
  • play this tab
  • loop segment
  • change instrument
  • show fretboard
  • metronome
×
Best way to learn
"21 Guns"
Autoscroll
slow
fast
+/-
esc
set tempo
stop
Contributor
Difficulty
novice
21 GUNS BASS TAB
BY: CHEESELOGS17

SONG: 21 GUNS 
ARTIST: GREEN DAY
ALBUM: 21ST CENTURY BREAKDOWN

(NOTE: "11" DOESN'T MEAN FRET 11, IT MEANS TWO CONSECUTIVE STRUMS OF FRET 1) 

THE BEGINNING IS A VIOLIN, BUT THIS IS IT FOR BASS: 
  
G|-----2------|  x2
D|-3-0---2----|
A|------------|
E|------------|

VERSES- "Does the pain weigh..."


G|----------------------|
D|-0-00-----------------|  x7
A|------1-11-----3-33---|
E|-----------1-11-------|

PRE-CHORUS- "You're in ruins..."

G|--------|    "~" means: LET RING OUT
D|--------|
A|--1~~3--|
E|--------|

CHORUS- "One, 21 guns..."

G|--------------------------------------------------------------------------|
D|------00---------------------------00-------------------------------------|
A|---------33-1111111-33333333----------33-11111111-33333333-11111111-3~~~~~|
E|-11-00------------------------11-00---------------------------------------|

BRIDGE- "Did you try to live on your own..."

G|-------------------------------------------------------|
D|-00----------00----------00----------------------------|
A|---11--3333----11----------11-------11111111-33333333--|
E|-----11----------11-5555-----11-5555-------------------|

GUITAR SOLO-

G|----------------------------------|    G|-------------------|
D|---------0000---------------------| X2 D|-------------------|
A|-----3333----3333-1111----33333333|    A|-1111--------------|
E|-1111-----------------1111--------|    E|-----1111-00000000-|

DO VIOLIN INTRO AFTER SOLO, THEN GUITAR, THEN ON THE CHORUS, BASS ENTERS AGAIN.

HOPE YOU ENJOYED THIS! 
I'M PRETTY SURE IT'S ALL CORRECT.
comments
print report bad tab
1 comment total.
0 reply
wmacnab5 wrote on October 12 2014, 04:47 pm

didn't like this contribution

I want to post or [tab]
guest
You may want to rate the tab now too:
select rating
Please do not post tabs as comments. Select "correction" instead!