Oops, an error
Loading. Please wait.

21 Guns Tab

27,506 views 6 this week
3 commentsread comments
1 2 3 4 5
x 3
add to favorites
launch autoscroll
font size
0
reset
how to read this tab
guitar tuner
Autoscroll
slow
fast
+/-
esc
set tempo
stop
Help us to improve Ultimate-Guitar.com Take our survey!
×
Author
Made a mistake in the last tab with the chord C5* but has been sorted here. I 
have also added the solo. Enjoy!

Chords used:
    Dm   F    A#m    C    A    C5   C5* F5  D5  A#5  E5
e|--5----1-----1-----3----5--------------------------------------------|
B|--6----1-----3-----5----5--------------------------------------------|
G|--7----2-----3-----5----6-----5-----------7---3----9-----------------|
D|--7----3-----3-----5----7-----5---2---3---7---3----9-----------------|
A|--5----3-----1-----3----7-----3---3---3---5---1----7-----------------|
E|--5----1-----1-----3----5---------0---1------------------------------|


Intro:
     Dm    A#     F     C 
e|---------------------------|
B|----------------10-----9---|
G|---10-----7----------------|
D|---------------------------|  (x2)
A|---------------------------|
E|---------------------------|

Verse:
Dm     A#                F        C
Do you know what's worth fighting for,
Dm        A#        F      C
When it's not worth dying for?
Dm      A#        F      C
Does it take your breath away
A#                         C
And you feel yourself suffocating?
Dm       A#         F       C
Does the pain weigh out the pride?
Dm        A#       F        C
And you look for a place to hide?
Dm      A#             F      C
Did someone break your heart inside?
A#                        C5
You're in ruins

Chorus:
F5   C5*  D5
One, 21 guns
C5            A#5
Lay down your arms
F5          C5
Give up the fight
F5   C5*  D5
One, 21 guns
C5            A#5  F5       C5
Throw up your arms into the sky,
A#5   F5    C5
You and I

Verse:
Dm          A#     F          C
When you're at the end of the road
Dm      A#       F        C
And you lost all sense of control
Dm        A#           F           C
And your thoughts have taken their toll
A#                                       C
When your mind breaks the spirit of your soul
Dm   A#             F      C
Your faith walks on broken glass
Dm      A#       F       C
And the hangover doesn't pass
Dm        A#   F        C
Nothing's ever built to last
A#                 C5
You're in ruins.

Chorus:
F5   C5*  D5
One, 21 guns
C5            A#5
Lay down your arms
F5          C5
Give up the fight
F5   C5*  D5
One, 21 guns
C5            A#5  F5       C5
Throw up your arms into the sky,
A#5   F5    C5
You and I

Bridge:
Dm      A#     F            C
Did you try to live on your own
Dm       A#               F        A
When you burned down the house and home?
Dm      A#         F           A
Did you stand too close to the fire?
A#m                          C
Like a liar looking for forgiveness from a stone

Solo:
      F5        C5*   D5          C5   A#5     F5        C5 
e|-------------------------------------------------------------------|   
B|--------10-------10------------------------------------------------|   
G|-----------10-12----10----10----9-10-------------------9-9-9-10-12-|   
D|-(7-10)----------------12----12------12-8-12-8-10------------------|(x2)
A|--------------------------------------------------12-8-------------|   
E|-------------------------------------------------------------------|   

    A#5       F5      E5
e|-----------------------------|
B|-----------------------------|
G|--------------------9-9-9-9--|
D|--8-12-8---------------------|
A|---------10-12-9-8-----------|  
E|-----------------------------|  


Break:
      Dm    A#     F     C 
e|---------------------------|
B|----------------10-----9---|
G|----10----7----------------|
D|---------------------------|  (x2)
A|---------------------------|
E|---------------------------|

Verse:
Dm        A#       F           C
When it's time to live and let die
Dm      A#        F       C
And you can't get another try
Dm         A#         F         C
Something inside this heart has died
A#                 C5
You're in ruins.

Chorus:
F5   C5*  D5
One, 21 guns
C5            A#5
Lay down your arms
F5          C5
Give up the fight
F5   C5*  D5
One, 21 guns
C5            A#5  F5       C5
Throw up your arms into the sky
F5   C5*  D5
One, 21 guns
C5            A#5
Lay down your arms
F5          C5
Give up the fight
F5   C5*  D5
One, 21 guns
C5            A#5  F5       C5
Throw up your arms into the sky,
A#5   F5    C5
You and I
Suggest correction
Give kudos to tab author, rate the tab!
1 2 3 4 5
comments
print report bad tab
3 comments total.
0 reply
SUM - 182 67 Jun 20, 2009 10:15 AM

you have copy this tab

0 reply
Asif Zaman 60 Jul 14, 2009 11:41 PM

nice

0 reply
Saroz 170 Sep 03, 2010 11:25 PM

the solo is like this


Q E E E E E E Q E E E E E E
E||----------------------------------|-----------------------------------|
B||------------10------8~--(8)h--10--|-----------------------------------|
G||----------------------------------|--10~--------10------9~--(9)h--10--|
D||--\8----10------10----------------|---------10------10----------------|
A||----------------------------------|-----------------------------------|
E||----------------------------------|-----------------------------------|

Q E E E E E E Q E E E E Q
---------------------------|----------------------------------|
---------------------------|----------------------------------|
--7~-------7---------------|--(9)~----9~--9~--9~--10~--12~----|
--------8-----8--10--7-----|----------------------------------|
------------------------8--|----------------------------------|
---------------------------|----------------------------------|

Q E E E E E E Q E E E E E E
----------------------------------|-----------------------------------|
------------10------8~--(8)h--10--|-----------------------------------|
----------------------------------|--10~--------10------9~--(9)h--10--|
--\8----10------10----------------|---------10------10----------------|
----------------------------------|-----------------------------------|
----------------------------------|-----------------------------------|

W W
Q E E E E E E Q E E E E Q
---------------------------|----------------------------------|
---------------------------|----------------------------------|
--7~-------7---------------|--(9)~----9~--9~--9~--10~--12~----|
--------8-----8--10--7-----|----------------------------------|
------------------------8--|----------------------------------|
---------------------------|----------------------------------|

W W W W W
Q E E E E E E E E E E E E E E
--------------------------|---------------------------------|-----------|
--------3--------1--------|---------------------------------|-----------|
--L~-------3--------2-----|--\9~--9~--9~--9~--9~--9--9--9\--|-----------|
--------------3--------3--|---------------------------------|-----------|
--------------------------|---------------------------------|-----------|
--------------------------|---------------------------------|-----------|

-----------|-----------|-----------|-----------||
-----------|-----------|-----------|-----------||
-----------|-----------|-----------|-----------||
-----------|-----------|-----------|-----------||
-----------|-----------|-----------|-----------||
-----------|-----------|-----------|-----------||

Duration Legend
---------------
W - whole
H - half
Q - quarter
E - 8th
S - 16th
T - 32nd
X - 64th
. - note dotted
|-n-| - n-tuplets

Tablature Legend
----------------
L - tied note
x - dead note
g - grace note
(n) - ghost note
> - accentuded note
NH - natural harmonic
AH - artificial harmonic
TH - tapped harmonic
SH - semi harmonic
PH - pitch harmonic
h - hammer on
p - pull off
b - bend
br - bendRelease
pb - preBend
pbr - preBendRelease
brb - bendReleaseBend
\n/ - tremolo bar dip
\n - tremolo bar dive
-/n - tremolo bar Release up
/n\ - tremolo bar inverted dip
/n - tremolo bar return
-\n - tremolo bar Release down
S - shift slide
s - legato slide
/ - slide into from below or out of upwards
\ - slide into from above or out of downwards
~ - vibrato
W - wide vibrato
tr - trill
TP - tremolo picking
T - tapping
S - slap
P - pop
< - fade in
^ - brush up
v - brush down

guest
You may want to rate the tab now too:
select rating
Wanna post a correction for this tab? Suggest correction