Oops, an error
Loading. Please wait.

21 Guns Tab

223,047 views 156 this week
16 commentsread comments
1 2 3 4 5
x 72
add to favorites
launch autoscroll
font size
0
reset
how to read this tab
guitar tuner
Autoscroll
slow
fast
+/-
esc
set tempo
stop
Help us to improve Ultimate-Guitar.com Take our survey!
×
Author
21 Guns - Green Day

Gtr 1 - Electric (Rythm)
Gtr 2 - Electric (Lead)
Gtr 3 - Acoustic

[Intro] x2
Gtr 2
e|---------------------------|
B|--------------10~~---------|
G|--10~~--7~~---------9~~----|
D|---------------------------|
A|---------------------------|
E|---------------------------|

[Verse]
Gtr 3
e|--1--1--------1--1-------0--|
B|--3--3--3--3--1--1-------1--| x3
G|--2--2--3--3--2--2--0--0-0--|
D|--0--0--3--3--3--3--2--2-2--|
A|--------1--1--3--3--3--3-3--|
E|----------------------------|

e|----------------0--0-0-0-0-0--|
B|--3--3-3-3-3-3--1--1-1-1-1-1--|
G|--3--3-3-3-3-3--0--0-0-0-0-0--|
D|--3--3-3-3-3-3--2--2-2-2-2-2--|
A|--1--1-1-1-1-1--3--3-3-3-3-3--|
E|------------------------------|
(Then)
Gtr 2
e|---------------------------|    |-------|
B|--------------10~~---------| x3 |-------|
G|--10~~--7~~---------9~~----|    |--7~~--|
D|---------------------------|    |-------|
A|---------------------------|    |-------|
E|---------------------------|    |-------|

Gtr 3
e|--1--1--------1--1-------0--|    |-------|
B|--3--3--3--3--1--1-------1--| x3 |--3~~--|
G|--2--2--3--3--2--2--0--0-0--|    |--3~~--|
D|--0--0--3--3--3--3--2--2-2--|    |--3~~--|
A|--------1--1--3--3--3--3-3--|    |--1~~--|
E|----------------------------|    |-------|

[Pre-Chorus]
Gtr 1 + 2
e|-----|
B|-----|
G|--5--|
D|--5--|
A|--3--|
E|-----|
 
[Chorus]
Gtr 1
e|------------------------------------------------------------------|
B|------------------------------------------------------------------| x2
G|------------------7-7-----5-5-5-55-3-3-3-3---------5-5-5-5-5-5-5--|
D|--3-3-----2-2-----7-7-----5-5-5-55-3-3-3-3-3-3-3-3-5-5-5-5-5-5-5--|
A|--3-3-----3-3-----5-5-----3-3-3-33-1-1-1-1-3-3-3-3-3-3-3-3-3-3-3--|
E|--1-1-----0-0------------------------------1-1-1-1----------------|

Gtr 2
e|--------------------------------------------------------------------|
B|--------------------------------------------------------------------| x2
G|------------------7-7-----5-5-5-55-3-3-3-3---------9-9-9-9-9-10-12--|
D|--3-3-----2-2-----7-7-----5-5-5-55-3-3-3-3-3-3-3-3------------------|
A|--3-3-----3-3-----5-5-----3-3-3-33-1-1-1-1-3-3-3-3------------------|
E|--1-1-----0-0------------------------------1-1-1-1------------------|

[Post-Chorus]
Gtr 1
e|-----------------------|
B|-----------------------|
G|--3-3-3-3----------5~--|
D|--3-3-3-3-3-3-3-3--5~--|
A|--1-1-1-1-3-3-3-3--3~--|
E|----------1-1-1-1------|

Gtr 2
e|-----------------------|
B|----3-----1------------|
G|------3-----2------9~--|
D|--3-----3-----3--------|
A|-----------------------|
E|-----------------------|

[Repeat Verse]

[Repeat Pre-Chorus]

[Repeat Chorus]

[Post-Chorus]
Gtr 1
e|------------------------------------|
B|------------------------------------|
G|--3-3-3-3----------5-5-5-5-5-5------|
D|--3-3-3-3-3-3-3-3--5-5-5-5-5-5------|
A|--1-1-1-1-3-3-3-3--3-3-3-3-3-3------|
E|----------1-1-1-1--------------\\\--|

Gtr 2
e|------------------------------------|
B|----3-----1-------------------------|
G|------3-----2------9-9-9-9-9-9-9-9--|
D|--3-----3-----3---------------------|
A|------------------------------------|
E|------------------------------------|

[Bridge]
Gtr 1
e|-----------------------------------------------------------------------------------------|
B|-----------------------------------------------------------------------------------------|
G|--7-7---------3-3---------------------5-5-5-5-7-7---------3-3----------------------------|
D|--7-7---------3-3---------3-3---------5-5-5-5-7-7---------3-3-----------3-3-3-3-7-7-7-7--|
A|--5-5---------1-1---------3-3---------3-3-3-3-5-5---------1-1-----------3-3-3-3-7-7-7-7--|
E|--------------------------1-1-----------------------------------\\\\\\\-1-1-1-1-5-5-5-5--|

e|-------------------------------------------------------------------------|
B|-------------------------------------------------------------------------|
G|--7-7---------3-3-------------------------3-3-3-3-3-3-3-5-5-5-5-5-5-5-5--|
D|--7-7---------3-3---------3-3-3-3-7-7-7-7-3-3-3-3-3-3-3-5-5-5-5-5-5-5-5--|
A|--5-5---------1-1---------3-3-3-3-7-7-7-7-1-1-1-1-1-1-1-3-3-3-3-3-3-3-3--|
E|--------------------------1-1-1-1-5-5-5-5--------------------------------|

Gtr 2
e|---------------------------------------------------------------------------------------------|
B|---------------------------------------------------------------------------------------------|
G|--10----10----10----10-10-10----10----9----9----10----10----10----10-10-10----10----9-9-9-9--|
D|-----12----12----12----------10----10---10---10----12----12----12----------10----10----------|
A|---------------------------------------------------------------------------------------------|
E|---------------------------------------------------------------------------------------------|

e|----------------------------------------------------------------------------------------|
B|----------------------------------------------------------------------------------------|
G|--10----10----10----10-10-10----10----9-9-9-9-10-10-10-10-10-10-10-10-10-9-9-9-9-9-9-9--|
D|-----12----12----12----------10----10---------------------------------------------------|
A|----------------------------------------------------------------------------------------|
E|----------------------------------------------------------------------------------------|

[Solo]
Gtr 1
e|---------------------------------------------------------------|
B|---------------------------------------------------------------| x2
G|------------------7-7-7-7-5-5-5-5-3-3-3-3---------5--5--5-5-5--|
D|--3-3-3-3-2-2-2-2-7-7-7-7-5-5-5-5-3-3-3-3-3-3-3-3-5--5--5-5-5--|
A|--3-3-3-3-3-3-3-3-5-5-5-5-3-3-3-3-1-1-1-1-3-3-3-3-3--3--3-3-3--|
E|--1-1-1-1-0-0-0-0-------------------------1-1-1-1--------------|

e|-------------------------------|
B|-------------------------------|
G|--3-3-3-3----------------------|
D|--3-3-3-3-3-3-3-3-7--7--7-7-7--|
A|--1-1-1-1-3-3-3-3-7--7--7-7-7--|
E|----------1-1-1-1-5--5--5-5-5--|

Gtr 2
e|-----------------------------------------------------------------------------|
B|-------10----8---10s---------------------------3---1-------------------------|
G|----------10---------10---7-10-7-9---10s-7---3---3---2----/9---9---9-10-12s--|
D|----10-------------------------------------------------3---------------------|
A|--8--------------------------------------------------------------------------|
E|-----------------------------------------------------------------------------|

e|------------------------------------------------------------------------12s--|
B|-------10----8---10s---------------------------3---1-------------------------|
G|----------10---------10---7-10-7-9---10s-7---3---3---2----/9---9---9-10------|
D|----10-------------------------------------------------3---------------------|
A|--8--------------------------------------------------------------------------|
E|-----------------------------------------------------------------------------|

e|---------------------------------|
B|----3-----1----------------------|
G|------3-----2----/9---9---9---9--|
D|--3-----3-----3------------------|
A|---------------------------------|
E|---------------------------------|

[Repeat Intro]

[Verse]
Gtr 3
e|--1--1--------1--1-------0--|    |-----|
B|--3--3--3--3--1--1-------1--| x3 |--3--|
G|--2--2--3--3--2--2--0--0-0--|    |--3--|
D|--0--0--3--3--3--3--2--2-2--|    |--3--|
A|--------1--1--3--3--3--3-3--|    |--1--|
E|----------------------------|    |-----|

[Out-Chorus]
Gtr 1
e|------------------------------------------------------------------|
B|------------------------------------------------------------------| x4
G|------------------7-7-----5-5-5-55-3-3-3-3---------5-5-5-5-5-5-5--|
D|--3-3-----2-2-----7-7-----5-5-5-55-3-3-3-3-3-3-3-3-5-5-5-5-5-5-5--|
A|--3-3-----3-3-----5-5-----3-3-3-33-1-1-1-1-3-3-3-3-3-3-3-3-3-3-3--|
E|--1-1-----0-0------------------------------1-1-1-1----------------|

Gtr 2
e|--------------------------------------------------------------------|
B|--------------------------------------------------------------------| x2
G|------------------7-7-----5-5-5-55-3-3-3-3---------9-9-9-9-9-10-12--|
D|--3-3-----2-2-----7-7-----5-5-5-55-3-3-3-3-3-3-3-3------------------|
A|--3-3-----3-3-----5-5-----3-3-3-33-1-1-1-1-3-3-3-3------------------|
E|--1-1-----0-0------------------------------1-1-1-1------------------|

e|-------------------------------------------------------------------------------|
B|--------------------------------------------------3-----1----------------------| x2
G|--10----10----12----12----10----10----9----9--------3-----2---9-9-9-9-9-10-12--|
D|-----10----10----10----10----12----12---10---10-3-----3-----3------------------|
A|-------------------------------------------------------------------------------|
E|-------------------------------------------------------------------------------|

[Outro]
Gtr 1
e|------------------------|
B|------------------------|
G|--3-3-3-3----------5~~--|
D|--3-3-3-3-3-3-3-3--5~~--|
A|--1-1-1-1-3-3-3-3--3~~--|
E|----------1-1-1-1-------|

Gtr 2
e|------------------------|
B|----3-----1-------------|
G|------3-----2------9~~--|
D|--3-----3-----3---------|
A|------------------------|
E|------------------------|



************************************

~ - Hold Note
\ - Slide Down
/ - Slide Up
s - Slight Bend 

************************************
Suggest correction
comments
print report bad tab
16 comments total. Showing first comments. show 1 bad comment
+2 reply
libertines4ever 648 Jun 27, 2009 11:44 AM

this would be the proper strumming for the verse

VERSE:
e|1-------1-----------------------------------------------0-------|
B|3-------3-------3-------3-------1-------1---1-0---------1-------|
G|2-------2---0---3-------3---0---2-------2---2-0-0---0---0---0---|
D|0-------0---0---3-------3---0---3-------3---3-0-2---2---2---0---|
A|------------0---1-------1---0---3-------3---3---3---3---3---0---|
E|----------------------------------------------------------------|

e|1-------1-----1---------1-------0-------0-----0---------0-------|
B|3-------3-----3---------3-------1-------1-----1---------1-------|
G|3-------3-----3-3---3---3---x---0-------0-----0-0---0---0---0---|
D|3-------3-------3---3---3---x---2-------2-------2---2---2---0---|
A|1-------1-------1---1---1---x---3-------3-------3---3---3---0---|
E|----------------------------------------------------------------|

+1 reply
synyster rev 196 Jun 27, 2009 10:48 PM

well strictly the intro isn't even a guitar recording so it's just a simple conversion of that i don't think there are lower notes on it too.

Your verse is interesting but i'm pretty sure the 000 notes are just him changing his chords on the guitar, that slight noise happens because of the slight pull off on the frets, but you do have a point with the 023 for the first two notes instead of the 01023, i thought it was just a hard strum the last time, ill look into it more might change it

guest
You may want to rate the tab now too:
select rating
Wanna post a correction for this tab? Suggest correction