Oops, an error
Loading. Please wait.

21St Century Breakdown Tab

version 2
version 2

Album

Whole song

Interactive

27,194 views 12 this week
no commentswrite comment
1 2 3 4 5
x 4
add to favorites
launch autoscroll
font size
0
reset
how to read this tab
guitar tuner
Autoscroll
slow
fast
+/-
esc
set tempo
stop
Help us to improve Ultimate-Guitar.com Take our survey!
×
Author
Tabed By Zuriel Rivera Zuñiga
-------------------------------------------------------------------------------
		     Song Of The Century - Green Day
-------------------------------------------------------------------------------
    There isn´t Guitar In The song
-------------------------------------------------------------------------------
   II.       21st Century Breakdown-Green Day
-------------------------------------------------------------------------------
Tabbed by: Zuriel Rivera Zuñiga
Tuning: Standard

Verse

Both guitars
e|---------------------------------------------------------------------------|
B|---------------------------------------------------------------------------|
G|--6-6--6-6-6---------------------------------------------------------------|
D|--6-6--6-6-6--6-6--4-44----------------------------------------------------| x6
A|--4-4--4-4-4--6-6--4-44----------------------------------------------------|
E|--------------4-4--2-22----------------------------------------------------|

Pre-Chorus

"My generation is zero"

Guitar 1
e|---------------------------------------------------------------------------|
B|---------------------------------------------------------------------------|
G|--3-3-3-3-3-3---------------3-3-3-3-3-3------------------------------------|
D|--3-3-3-3-3-3--4-4-4-4-4-4--3-3-3-3-3-3------------------------------------|
A|--1-1-1-1-1-1--4-4-4-4-4-4--1-1-1-1-1-1------------------------------------|
E|---------------2-2-2-2-2-2-------------------------------------------------|

Guitar 2
e|---------------------------------------------------------------------------|
B|----2-----2------------11-------11-12-11--9----2-----2---------------------|
G|------3-----3----3--------11----11-11-11-11------3-----3---3---------------|
D|--------3-----3-----11-------11--------------------3-----3-----------------|
A|--1------------------------------------------1-----------------------------|
E|---------------------------------------------------------------------------|


"I never made it as a working class hero"

Both guitars
e|---------------------------------------------------------------------------|
B|---------------------------------------------------------------------------|
G|---------------------------------------------------------------------------|
D|--444-6-6------------------------------------------------------------------|
A|--444-6-6------------------------------------------------------------------|
E|--222-4-4------------------------------------------------------------------|


Chorus

Both guitars
e|---------------------------------------------------------------------------|
B|---------------------------------------------------------------------------|
G|--6-6----------------------------------------------------------------------|
D|--6-6--6-6-6--44444444-----------------------------------------------------|
A|--4-4--6-6-6--44444444-----------------------------------------------------|
E|-------4-4-4--22222222-----------------------------------------------------|


Post Chorus x2

Both guitars
e|---------------------------------------------------------------------------|
B|---------------------------------------------------------------------------|
G|--6-6--6-6-6---------------------------------------------------------------|
D|--6-6--6-6-6--6-6--4-44----------------------------------------------------|
A|--4-4--4-4-4--6-6--4-44----------------------------------------------------|
E|--------------4-4--2-22----------------------------------------------------|


The second time, the second guitar plays this fill
e|-------4---4---4-6-4----------------------------------------------------------|
B|----/6---6---6-------7-6------------------------------------------------------|
G|--6---------------------------------------------------------------------------|
D|------------------------------------------------------------------------------|
A|------------------------------------------------------------------------------|
E|------------------------------------------------------------------------------|

Verse
Pre-Chorus
Chorus

Bridge

Guitar 1 x2
e|---------------------------------------------------------------------------|
B|---------------------------------------------------------------------------|
G|---------------------------------------------------------------------------|
D|--6~---------------6~------------------------------------------------------|
A|--6~---------------6~------------------------------------------------------|
E|--4~---------------4~------------------------------------------------------|

Guitar 2 plays this over and over starting at 1:54
e|---------------------------------------------------------------------------|
B|---------4-----4-444-6-4---------------------------------------------------|
G|-----555---555-----------6-5-3---------------------------------------------|
D|--/6-----------------------------------------------------------------------|
A|---------------------------------------------------------------------------|
E|---------------------------------------------------------------------------|


"We are the cries of the class of '13"

Guitar 1
e|-----------------------------------------------------------------------xxxx|
B|-----------------------------------------------------------------------xxxx|
G|--------------------6----------------------6--------------------6------xxxx|
D|--6~----------------6-6~-------------------6--6~----------------6-6~---xxxx|
A|--6~----------------4-6~-------------------4--6~----------------4-6~---xxxx|
E|--4~------------------4~----------------------4~------------------4~---xxxx|

Guitar 2 (repeatedly)
e|---------------------------------------------------------------------------|
B|---------4-----4-444-6-4---------------------------------------------------|
G|-----555---555-----------6-5-3---------------------------------------------|
D|--/6-----------------------------------------------------------------------|
A|---------------------------------------------------------------------------|
E|---------------------------------------------------------------------------|


Pre-verse

Guitar 1 x4           (include this after you play verse two the second time)
e|--------------------|-------------------------------------------------------|
B|--------------------|-------------------------------------------------------|
G|--6666666666666666--|-------------------------------------------------------|
D|--6666666666666666--|--4----------------------------------------------------|
A|--4444444444444444--|--4----------------------------------------------------|
E|--------------------|--2----------------------------------------------------|

Guitar 2 (repeatedly)
e|--------4-----4-444-6-4----------------------------------------------------|
B|----666---666-----------7-6-4----------------------------------------------|
G|--6------------------------------------------------------------------------|
D|---------------------------------------------------------------------------|
A|---------------------------------------------------------------------------|
E|---------------------------------------------------------------------------|


Verse 2 X4

Both guitars
e|---------------------------------------------------------------------------|
B|---------------------------------------------------------------------------|
G|--66666666--------6666666666666666-----------------------------------------|
D|--66666666--4--6--6666666666666666--6666666666-----------------------------|
A|--44444444--4--6--4444444444444444--6666666666-----------------------------|
E|------------2--4--------------------4444444444-----------------------------|
PM                                    ..........

Pre-verse
Verse 2

"Praise Liberty"
Both guitars                     4:15
e|------------------------------|--------------------------------------------|
B|------------------------------|--------------------------------------------|
G|--------------66666666--------|--------6-----------------------------------|
D|--4444444--6--66666666--(x4)--|--4--4--6--6--(x4)--------------------------|
A|--4444444--6--44444444--------|--4--4--4--6--------------------------------|
E|--2222222--4------------------|--2--2-----4--------------------------------|

Guitar 1
e|---------------------------------------------------------------------------|
B|---------------------------------------------------------------------------|
G|---------------------------------------------------------------------------|
D|--6~----6~----6~----6~----6~----6~----6~----6~-----------------------------|
A|--6~----6~----6~----6~----6~----6~----6~----6~-----------------------------|
E|--4~----4~----4~----4~----4~----4~----4~----4~-----------------------------|


Guitar 2
e|---------------------------------------------------------------------------|
B|---------------------------------------------------------------------------|
G|---------44-----444-6-4-----------44-444-7777-7777-------------------------|
D|-----555----555---------5-----555------------------------------------------|
A|--66-----------------------66----------------------------------------------|
E|---------------------------------------------------------------------------|


Guitar solo

Guitar 1
e|---------------------------------------------------------------------------|
B|---------------------------------------------------------------------------|
G|--6~---6-5~---5-3~---3----------------------6~-----------------------------|
D|--6~---6-6~---6-3~---3-6~---6-4~---4-7~---7-6~-----------------------------|
A|--4~---4-3~---3-1~---1-6~---6-4~---4-7~---7-4~-----------------------------|
E|-----------------------4~---4-2~---2-5~---5--------------------------------|

Guitar 2
e|---------------------------------------------------------------------------|
B|--16b-16b-16b-14~-16-13-----14-11------------------------------------------|
G|------------------------13~-------11~--11-13b-13-11-13-10------------------|
D|----------------------------------------------------------11---------------|
A|---------------------------------------------------------------------------|
E|---------------------------------------------------------------------------|

Outro

Guitar 1
e|---------------------------------------------------------------------------|
B|---------------------------------------------------------------------------|
G|--6~---6-5~---5-3~---3----------------------6~-----------------------------|
D|--6~---6-6~---6-3~---3-6~---6-4~---4-7~---7-6~-----------------------------|
A|--4~---4-3~---3-1~---1-6~---6-4~---4-7~---7-4~-----------------------------|
E|-----------------------4~---4-2~---2-5~---5--------------------------------|

I can't make out what guitar 2 is playing

Play the outro twice, minus the C# at the end

-------------------------------------------------------------------------------
		     Know Your Enemy - Green Day
-------------------------------------------------------------------------------
This is a very easy Song And There are many ways to play it That´s The reason why
I´m Going To Pass To Next Song.
-------------------------------------------------------------------------------
		     ¡Viva La Gloria! - Green Day
-------------------------------------------------------------------------------
Tabbed by: Zuriel Rivera Zuñiga
Tuning: Standard

The First Part Of This song Is Piano What´s Going On With You Guys

Chorus: Work out the rhythm, pretty simple (just the same as Letterbomb)

Gloria Where Are You Gloria?...
|------------------------------------------------------------------------------------------------|
|------------------------------------------------------------------------------------------------|
|--------------------------------------------6-6-6-6-6-6-6-6-------------------------------------|
|-2-2-2-2-2-2-2-2-------6-6-6-6-6-6-6-6------6-6-6-6-6-6-6-6---7-7-7-7-7-7-7-7---7-7-7-7-7-7-7-7-|
|-2-2-2-2-2-2-2-2-------6-6-6-6-6-6-6-6------4-4-4-4-4-4-4-4---7-7-7-7-7-7-7-7---7-7-7-7-7-7-7-7-|
|-0-0-0-0-0-0-0-0-------4-4-4-4-4-4-4-4------------------------5-5-5-5-5-5-5-5---5-5-5-5-5-5-5-5-|

...Slashing through your spirit
-----------------------------------------------------------------------------|
-----------------------------------------------------------------------------|
-------4-4--6-6-6-6-6-6-6-6--------------------------------------------------|
--2-2--4-4--6-6-6-6-6-6-6-6----7-7-7-7-7-7-7-7-------9-9-9-9-9-9-9-9---------|
--2-2--2-2--4-4-4-4-4-4-4-4----7-7-7-7-7-7-7-7-------9-9-9-9-9-9-9-9---------|
--0-0--------------------------5-5-5-5-5-5-5-5-------7-7-7-7-7-7-7-7---------|x2


Verse:
|-------------------------------------------------------------|
|-------------------------------------------------------------|
|-----------------------------6-6-x-6-6-x-6-6-x-6-6-x---------|
|--2-2-x-2-2-x-6-6-x-6-6-x----6-6-x-6-6-x-6-6-x-6-6-x---------|
|--2-2-x-2-2-x-6-6-x-6-6-x----4-4-x-4-4-x-4-4-x-4-4-x---------|
|--0-0-x-0-0-x-4-4-x-4-4-x------------------------------------|

---------------------------------------------------------|
---------------------------------------------------------|
---------------------------------------------------------|
--7-7-x-7-7-x-2-2-x-2-2-x----9-9-x-9-9-x-9-9-x-9-9-------|
--7-7-x-7-7-x-2-2-x-2-2-x----9-9-x-9-9-x-9-9-x-9-9-------|
--5-5-x-5-5-x-0-0-x-0-0-x----7-7-x-7-7-x-7-7-x-7-7-------|   x2


----------------------|
----------------------|
---2-2-2--2-4-4-4-----|
---2-2-2--2-4-4-4-----|
---0-0-0--0-2-2-2-----|
----------------------|
So don't put away....


Chorus x2


Ending: (very hard to work out, this will fit in with the song)
|---------------------------|
|---------------------------|
|-------4----2--------------|
|--2----4----2----6--4--2---|
|--2----2----0----6--4--2---|
|--0--------------4--2--0---|   x2
So Gloria.....


|------------|
|------------|
|------------|
|--2---2-2-2-|
|--2---2-2-2-|
|--0---0-0-0-|


-------------------------------------------------------------------------------
			Before the Lobotomy - Green Day
-------------------------------------------------------------------------------
Thanks to: Stjimmy34
Tuning: Half-step down

Intro x5
eb|-----------------------------------------0---------------0-----------------|
Bb|---------3---------------3-------------3---3-----------3---3---------------|
Gb|-------0---0-----------0---0---------2-------2-------2-------2-------------|
Db|-----0-------0-------0-------0-----0-----------0---0-----------0-----------|
Ab|---2-----------2---2-----------2-------------------------------------------|
Eb|-3---------------3---------------2---------------2-------------------------|

                                   Last time, just strum this at the end:
eb|---------0---------------0---------------0-----------------------|---------|
Bb|-------3---3-----------3---3-----------1---1---------4-----4-----|--4------|
Gb|-----2-------2-------2-------2-------0-------0---------5-----5---|--5------|
Db|---0-----------0---0-----------0---2-----------2---5-----------5-|--5------|
Ab|---------------------------------3---------------6-------6-------|--6------|
Eb|-1---------------1-----------------------------------------------|---------|

Pre-Verse
eb|---------------------------------------------------------------------------|
Bb|---------------------------------------------------------------------------|
Gb|-7-------------------------------------------------------------------------|
Db|-7-5-7---------------------------------------------------------------------|
Ab|-5-5-7---------------------------------------------------------------------|
Eb|---3-5---------------------------------------------------------------------|

Verse x4
eb|---------------------------------------------------------------------------|
Bb|-77-1010-88-77-------------------------------------------------------------|
Gb|-77--9-9-77-77--7----------7-----------------------------------------------|
Db|----------------7-5-7--5-7-7-----------------------------------------------|
Ab|----------------5-5-7--5-7-5-----------------------------------------------|
Eb|------------------3-5--3-5-------------------------------------------------|

Chorus x8
eb|---------------------------------------------------------------------------|
Bb|---------------------------------------------------------------------------|
Gb|---7-----------------------------------------------------------------------|
Db|-5-7-7---------------------------------------------------------------------|
Ab|-5-5-7---------------------------------------------------------------------|
Eb|-3---5---------------------------------------------------------------------|

Second verse, same as the first, except for the fourth time you play it
you don't play anything during "Whiskey shots and cheap cigarettes"
eb|-xxxxxx--------------------------------------------------------------------|
Bb|-xxxxxx--------------------------------------------------------------------|
Gb|-xxxxxx--7----------7------------------------------------------------------|
Db|-xxxxxx--7-5-7--5-7-7------------------------------------------------------|
Ab|-xxxxxx--5-5-7--5-7-5------------------------------------------------------|
Eb|-xxxxxx----3-5--3-5--------------------------------------------------------|

Chorus same again, but the 8th time you end with
eb|---------------------------------------------------------------------------|
Bb|---------------------------------------------------------------------------|
Gb|---7-----------------------------------------------------------------------|
Db|-5-7-----------------------------------------------------------------------|
Ab|-5-5-77777777777777--------------------------------------------------------|
Eb|-3---55555555555555--------------------------------------------------------|

Bridge
eb|-------------------------|-------------------------------------------------------|
Bb|-------------------------|-------------------------------------------------------|
Gb|-7-7-777-----------------|-5-5-555------------8-8-888-----------7777777777777777-|
Db|-7-7-777-7-77-7777--(x4)-|-5-5-555-5-55-5555--8-8-888-8-88-8888-7777777777777777-|
Ab|-5-5-555-7-77-7777-------|-3-3-333-5-55-5555--6-6-666-8-88-8888-5555555555555555-|
Eb|---------5-55-5555-------|---------3-33-3333----------6-66-6666------------------|

Guitar 1
eb|-------------------------------10\-----------------------------------------|
Bb|------------7h8-10--9h10-13-10---------------------------------------------|
Gb|-7--7h9-11-----------------------------------------------------------------|
Db|---------------------------------------------------------------------------|
Ab|---------------------------------------------------------------------------|
Eb|---------------------------------------------------------------------------|

Guitar 2 slowly release palm mute
eb|---------------------------------------------------------------------------|
Bb|---------------------------------------------------------------------------|
Gb|-7777777777777777----------------------------------------------------------|
Db|-7777777777777777----------------------------------------------------------|
Ab|-5555555555555555----------------------------------------------------------|
Eb|---------------------------------------------------------------------------|
    ........

Outro  There's a second guitar that plays the intro under this
eb|---------------------------------------------------------------------------|
Bb|---------------------------------------------------------------------------|
Gb|----------------------------------------------------5555555-88888888-------|
Db|-5555555555555555-4444444444444444-3333333333333333-5555555-88888888-------|
Ab|-5555555555555555-5555555555555555-3333333333333333-3333333-66666666-------|
Eb|-3333333333333333-2222222222222222-1111111111111111------------------------|

End with this at "in the underground"
eb|---------------------------------------------------------------------------|
Bb|-5~----4~------------------------------------------------------------------|
Gb|---------------------------------------------------------------------------|
Db|---------------------------------------------------------------------------|
Ab|---------------------------------------------------------------------------|
Eb|---------------------------------------------------------------------------|

-------------------------------------------------------------------------------
		     Christian´s Inferno – Green Day
-------------------------------------------------------------------------------
Tabbed by: Zuriel Rivera Zuñiga
Tuning: Standard

Pre-Chorus X1 (0:36)
e|-------------------------------------------------------------------------|
B|-------------------------------------------------------------------------|
G|-------------------------------------------------------------------------|
D|-7-7-7-7-7-7-7-7---------------------------------------------------------|
A|-7-7-7-7-7-7-7-7---------------------------------------------------------|
E|-5-5-5-5-5-5-5-5---------------------------------------------------------|

Chorus X4
e|-------------------------------------------------------------------------|
B|-------------------------------------------------------------------------|
G|-77777777----------77777777----------------------------------------------|
D|-77777777-77777777-77777777-55555555-------------------------------------|
A|-55555555-77777777-55555555-55555555-------------------------------------|
E|----------55555555----------33333333-------------------------------------|

Pre-verse X2
e|-------------------------------------------------------------------------|
B|-------------------------------------------------------------------------|
G|-4444444444444444----------55555555--------------------------------------|
D|-4444444444444444-55555555-55555555--------------------------------------|
A|-2222222222222222-55555555-33333333--------------------------------------|
E|------------------33333333-----------------------------------------------|

Verse 1 - No Guitar

Per-Chorus X1 (0:36)
e|-------------------------------------------------------------------------|
B|-------------------------------------------------------------------------|
G|-------------------------------------------------------------------------|
D|-7-7-7-7-7-7-7-7---------------------------------------------------------|
A|-7-7-7-7-7-7-7-7---------------------------------------------------------|
E|-5-5-5-5-5-5-5-5---------------------------------------------------------|

Chorus X4
e|-------------------------------------------------------------------------|
B|-------------------------------------------------------------------------|
G|-77777777----------77777777----------------------------------------------|
D|-77777777-77777777-77777777-55555555-------------------------------------|
A|-55555555-77777777-55555555-55555555-------------------------------------|
E|----------55555555----------33333333-------------------------------------|

Pre-verse X2
e|-------------------------------------------------------------------------|
B|-------------------------------------------------------------------------|
G|-4444444444444444----------55555555--------------------------------------|
D|-4444444444444444-55555555-55555555--------------------------------------|
A|-2222222222222222-55555555-33333333--------------------------------------|
E|------------------33333333-----------------------------------------------|

Solo X4
e|-------------------------------------------------------------------------|
B|-1212----1212----1212----1212----1212----1313----131315151212----1212----|
G|-----1010----1010----1010----1010----1010----1212------------1010----1010|
D|-------------------------------------------------------------------------|
A|-------------------------------------------------------------------------|
E|-------------------------------------------------------------------------|

Chorus pt. 1 X4 (last time skip out the 3's and go to outro)
e|-------------------------------------------------------------------------|
B|-------------------------------------------------------------------------|
G|-77777777----------77777777----------------------------------------------|
D|-77777777-77777777-77777777-55555555-------------------------------------|
A|-55555555-77777777-55555555-55555555-------------------------------------|
E|----------55555555----------33333333-------------------------------------|

Outro 1 X4
e|-------------------------------------------------------------------------|
B|-------------------------------------------------------------------------|
G|-1212121212121212-1010101010101010---------------------------------------|
D|-1212121212121212-1010101010101010---------------------------------------|
A|-1010101010101010-8-8-8-8-8-8-8-8----------------------------------------|
E|-------------------------------------------------------------------------|

Outro 2 X1
e|-------------------------------------------------------------------------|
B|-------------------------------------------------------------------------|
G|-------------------------------------------------------------------------|
D|-12-12-10-10-12-12-10-10--9----------------------------------------------|
A|-10-10-8--8--10-10-8--8---9----------------------------------------------|
E|--------------------------7----------------------------------------------|
                            ^ One quick strum with Delay

-------------------------------------------------------------------------------
		     Last Night On Earth - Green Day
-------------------------------------------------------------------------------
Tabbed by: Zuriel Rivera Zuñiga
Tuning: Standard

    A             A7            D            Dm

e|-----|      e|-----|      e|--2--|      e|--1--|
B|--2--|      B|--2--|      B|--3--|      B|--3--|
G|--2--|      G|-----|      G|--2--|      G|--2--|
D|--2--|      D|--2--|      D|-----|      D|-----|
A|-----|      A|-----|      A|-----|      A|-----|
E|-----|      E|-----|      E|-----|      E|-----|

Intro:
It´s Only piano

A
I text a postcard, sent to you
A       A7
Did it go through?
D       Dm             A
Sending all my love to you
A                                      A7
You are the moonlight of my life every night
D      Dm            A
Giving all my love to you

D          Dm               A
My beating heart belongs to you
D           Dm                A
I walked for miles 'til I found you
D           Dm
I'm here to honor you
A         A7                D(hold)
If I lose everything in the fire
            Dm             A
I'm sending all my love to you

A-A-A-A7
D-Dm-A-A

A
With every breath that I am worth
A       A7
Here on Earth
D           Dm             A
I'm sending all my love to you
A
So if you dare to second guess
A       A7
You can rest
D            Dm                A
Assured that all my love's for you


D          Dm               A
My beating heart belongs to you
D            Dm                 A
I walked for miles 'til I found you
D           Dm
I'm here to honor you
A           A7                D(hold)
If I lose everything in the fire
            Dm             A
I'm sending all my love to you

Solo I can’t Hear It Clearly Cause It Has a Weird Effect

D          Dm               A
My beating heart belongs to you
D            Dm                 A
I walked for miles 'til I found you
D           Dm
I'm here to honor you
A         A7                D(hold)
If I lose everything in the fire
      Dm           A
Did I ever make it through?

Outro:
A-A-A-A7
D-Dm-A(hold)
-------------------------------------------------------------------------------
		East Jesus Nowhere - Green Day
-------------------------------------------------------------------------------
Thanks to: stjimmy34
Tuning: Standard


Intro

Play the first part four times, then the other instruments join in
e|-------------xx-xx-xx-------|-------------xx-xx-xx-----------------------|
B|-------------xx-xx-xx-------|-------------xx-xx-xx-----------------------|
G|-------------xx-xx-xx-------|-------------xx-xx-xx-----------------------|
D|--9/12/9/7/9-xx-xx-xx--(X4)-|--9/12/9/7/9-xx-xx-xx-(X3)-9/12/9/7/9\------|
A|--7/10/7/5/7-xx-xx-xx-------|--7/10/7/5/7-xx-xx-xx------7/10/7/5/7\------|
E|-------------xx-xx-xx-------|-------------xx-xx-xx-----------------------|

Verse
e|--------xx-xx-xx-------|-------------xx-xx-xx----------------------------|
B|--------xx-xx-xx-------|-------------xx-xx-xx----------------------------|
G|--7---9-xx-xx-xx-------|-------------xx-xx-xx----------------------------|
D|--7-7-9-xx-xx-xx--(X4)-|--9/12/9/7/9-xx-xx-xx-(X3)-9/12/9/7/9\-----------|
A|--5-7-7-xx-xx-xx-------|--7/10/7/5/7-xx-xx-xx------7/10/7/5/7\-----------|
E|----5---xx-xx-xx-------|-------------xx-xx-xx----------------------------|

Pre-Chorus
e|-------------------------|-----------------------------------------------|
B|-------------------------|-----------------------------------------------|
G|--7----------------------|--7------------77777777------------------------|
D|--7-7-999999999999--(X3)-|--7-7-99999999-77777777------------------------|
A|--5-7-999999999999-------|--5-7-99999999-55555555------------------------|
E|----5-777777777777-------|----5-77777777---------------------------------|

Chorus
e|--000000------------------------000000-----------------------------------|
B|--000000------------------------000000-----------------------------------|
G|--000000--------222222-555-444--000000--------222222-555-777-------------|
D|--222222-555555-222222-555-444--222222-555555-222222-555-777-------------|
A|--222222-555555-000000-333-222--222222-555555-000000-333-555-------------|
E|--000000-333333-----------------000000-333333----------------------------|

Intro again. The second guitar plays this 2 times
e|-------------------------------------------------------------------------|
B|-------------------------------------------------------------------------|
G|--9/13/16/19/17/14/13/---------------------------------------------------|
D|--x/x-/x-/x-/x-/x-/x-/---------------------------------------------------|
A|--7/11/14/17/15/12/11/---------------------------------------------------|
E|-------------------------------------------------------------------------|

For the "Oh bless me Lord for I have sinned.." part there is bass, but no
guitar

Verse 2
e|--------xx-xx-xx------|--------------------------------------------------|
B|--------xx-xx-xx------|--------------------------------------------------|
G|--7-----xx-xx-xx------|--7----------777777-------------------------------|
D|--7-7-9-xx-xx-xx-(X3)-|--7-7-999999-777777-------------------------------|
A|--5-7-9-xx-xx-xx------|--5-7-999999-555555-------------------------------|
E|----5-7-xx-xx-xx------|----5-777777--------------------------------------|

Chorus
Intro with second guitar (X4)

"Don't test me"
e|--------------------|----------------------------------------------------|
B|--------------------|----------------------------------------------------|
G|--999999999999------|-9--9--9--------------------------------------------|
D|--999999999999-(X3)-|-9--9--9--------------------------------------------|
A|--777777777777------|-7--7--7--------------------------------------------|
E|--------------------|----------------------------------------------------|

Verse 2 again

Solo. Second guitar plays the chorus under it
e|----------------------------------------------12----12-14-------------12-|
B|-----------------------10---10-12-13----12-------12-------15----15-------|
G|--9---9-11-12----12-------9----------12----11----------------12----12----|
D|----9---------12----12---------------------------------------------------|
A|-------------------------------------------------------------------------|
E|-------------------------------------------------------------------------|

e|----12-14-15----14-12~~~-------------------------------------------------|
B|-12----------15----------------------------------------------------------|
G|-------------------------------------------------------------------------|
D|-------------------------------------------------------------------------|
A|-------------------------------------------------------------------------|
E|-------------------------------------------------------------------------|

Tremolo picking for this part (X4)
e|-------------------------------------------------------------------------|
B|-------------------------------------------------------------------------|
G|-9/13/16/19/17/14/13-----------------------------------------------------|
D|-------------------------------------------------------------------------|
A|-------------------------------------------------------------------------|
E|-------------------------------------------------------------------------|

"A fire burns today..."  (X2)         Not sure if these are the right chords
e|-------------------------------------------------------------------------|
B|----9--------12--------14--------17--------16----------------------------|
G|---9-------12--------14--------17--------16------------------------------|
D|--9------12--------14--------17--------16--------------------------------|
A|-7-----10--------12--------15--------14----------------------------------|
E|-------------------------------------------------------------------------|

Outro

Guitar 1
e|-------------xx-xx-xx----------------------------------------------------|
B|-------------xx-xx-xx----------------------------------------------------|
G|-------------xx-xx-xx-------------------7---9----9999--------------------|
D|--9/12/9/7/9-xx-xx-xx-(X3)-9/12/9/7/9\--7-7-9----9999--------------------|
A|--7/10/7/5/7-xx-xx-xx------7/10/7/5/7\--5-7-7----7777--------------------|
E|-------------xx-xx-xx---------------------5------------------------------|

Guitar 2
e|-------------------------------------------------------------------------|
B|-------------------------------------------------------------------------|
G|-9/13/16/19/17/14/13-----------------------------------------------------|
D|-------------------------------------------------------------------------|
A|-------------------------------------------------------------------------|
E|-------------------------------------------------------------------------|

Guitar 3
e|-------------------------------------------------------------------------|
B|-------------------------------------------------------------------------|
G|--9/13/16/19/17/14/13/---------------------------------------------------|
D|--x/x-/x-/x-/x-/x-/x-/---------------------------------------------------|
A|--7/11/14/17/15/12/11/---------------------------------------------------|
E|-------------------------------------------------------------------------|

Both guitar two and three play throughout what guitar 1 is playing


-------------------------------------------------------------------------------
		     Peacemaker - Green Day
-------------------------------------------------------------------------------
Tabbed by: Zuriel Rivera Zuñiga
Tuning: Standard


Chords used

  Bm    F#m  E
e|-2-----2----------|
B|-3-----2----------|
G|-4-----3----------|
D|-4-----4----2-----|
A|-2-----4----2-----|
E|-------2----0-----|


Verse

(Bm)
Well, I've got a fever, a non-believer. I'm in a state of grace
                                         F#m
For I am the Caesar, I'm gonna seize the day

Well, call of the banshee hey hey. Hey hey hey hey hey
                                            Bm
As God as my witness the infidels are gonna pay

Well, call the assassin. The orgasm. A spasm of love and hate
                                               Bm
For what will divide us? The righteous and the meek

Well, call of the wild hey hey. Hey hey hey hey hey
                                    Bm
Death to the girl at the end of the serenade

Chorus

 F#m                            Bm
 Vendetta, sweet vendetta. This Beretta of the night

e|---------------------------------------------------------------------------|
B|---------------------------------------------------------------------------|
G|---------------------------------------------------------------------------|
D|---------------------------------------------------------------------------|
A|------------------------------2~-------5------2~---------------------------|
E|-2~--------------3-2~------2-----------------------------------------------|

E                 Bm      F#m                         Bm
This fire and the desire. Shots ringing out on a holy parasite
e|---------------------------------------------------------------------------|
B|---------------------------------------------------------------------------|
G|---------------------------------------------------------------------------|
D|--------------------------------------------0------------------------------|
A|-5-----------------------------------------------0---2~--------------------|
E|---0~------------3-2~-----3-2~----------2----------------------------------|

Verse 2
I am a killjoy from Detroit. I drink from a well of rage
                                    F#m
I feed off the weakness with all my love

Call up the captain hey hey. Hey hey hey hey hey
                                          Bm
Death to the lover that you were dreaming of

This is a stand off, a Molotov cocktail On the house
                                                F#m
You thought I was a write off. You better think again

Call the peacemaker hey hey. Hey hey hey hey hey
                                                  Bm
I'm gonna send you back to the place where it all began


Chorus

  F#m                            Bm
  Vendetta, sweet vendetta. This Beretta of the night

e|---------------------------------------------------------------------------|
B|---------------------------------------------------------------------------|
G|---------------------------------------------------------------------------|
D|---------------------------------------------------------------------------|
A|------------------------------2~-------5------2~---------------------------|
E|-2~--------------3-2~------2-----------------------------------------------|

  E                 Bm      F#m                         Bm
  This fire and the desire. Shots ringing out on a holy parasite
e|---------------------------------------------------------------------------|
B|---------------------------------------------------------------------------|
G|---------------------------------------------------------------------------|
D|--------------------------------------------0------------------------------|
A|-5-----------------------------------------------0---2~--------------------|
E|---0~------------3-2~-----3-2~----------2----------------------------------|

Solo

Guitar 1
e|-------------------------------------------------------------------------------|
B|--------------11-9-11-9-11-9-11----9-11-9-11-9-11-------9-12-11-12-11-12-11----|
G|-4---3---4----------------------11----------------11-11---------------------11-|
D|-------------------------------------------------------------------------------|
A|-------------------------------------------------------------------------------|
E|-------------------------------------------------------------------------------|

Guitar 2        F#m                                         Bm

e|-------------------------------------------------------------------------------|
B|----11-12-11-12-11-12-11-------11-12-11-12-14-15-14-12-11-12-11-12-11-12-11----|
G|-11----------------------11-11----------------------------------------------11-|
D|-------------------------------------------------------------------------------|
A|-------------------------------------------------------------------------------|
E|-------------------------------------------------------------------------------|

                                 E                          Bm

e|---------------------------------------------------------------------------|
B|----9-11-9-11-9-11-9-------12--15-11---------------------------------------|
G|-11------------------11-11-------------------------------------------------|
D|---------------------------------------------------------------------------|
A|---------------------------------------------------------------------------|
E|---------------------------------------------------------------------------|

      F#m                    Bm


Verse 3 A second guitar just strikes the chords throughout the verse

(Bm)
Well now the caretaker's the undertaker. Now I'm gonna go out and get the peacemaker
                               F#m
This is the neo St. Valentines Massacre. Well call up the Gaza hey hey. hey hey hey hey hey
                                    Bm
Death to the ones at the end of the serenade
      F#m                                 Bm
Well, death to the ones at the end of the serenade
      F#m                                 Bm
Well, death to the ones at the end of the serenade
      F#m (stop)                                   Bm        (stop) Bm
Well, death to the ones at the end of the sere-----nade

-------------------------------------------------------------------------------
		     Last of the American Girls-Green Day
-------------------------------------------------------------------------------
Thanks to:Stjimmy34
Tuning:Standard

Verse x2

 Starts on "She wears her overcoat"
e|---------------------------------------------------------------------------|
B|---------------------------------------------------------------------------|
G|---------------------------------------------------------------------------|
D|---------------------------------------------------------------------------|
A|-------------------7777777-7-66-77-99--------------------------------------|
E|-7777777777777777----------------------777777777777777--2222222222222222---|

Chorus

Guitar 1
e|---------------------------------------------------------------------------|
B|---------------------------88888888----------------------------------------|
G|-------------------9999999999999999----------------------------------------|
D|-9999999999999999--9999999999999999--99999999--444-------------------------|
A|-9999999999999999--7777777777777777--99999999--444-------------------------|
E|-7777777777777777--------------------77777777--222-------------------------|

Guitar 2
e|---------------------------------------------------------------------------|
B|---------------------------------------------------------------------------|
G|-1616161616161616-1414141414141414-13131313-161616--13-1212121212121212----|
D|--x-x-x-x-x-x-x-x--x-x-x-x-x-x-x-x--x-x-x-x--x-x-x--x--x-x-x-x-x-x-x-x-----|
A|-1414141414141414-1212121212121212-11111111-141414--11-1010101010101010----|
E|---------------------------------------------------------------------------|

e|---------------------------------------------------------------------------|
B|---------------------------------------------------------------------------|
G|-1616161616161616-111111---------------------------------------------------|
D|--x-x-x-x-x-x-x-x-x-x-x----------------------------------------------------|
A|-1414141414141414-9-9-9----------------------------------------------------|
E|---------------------------------------------------------------------------|


Pre-Verse x4

Guitar 1
e|---------------------------------------------------------------------------|
B|---------------------------------------------------------------------------|
G|------9999-----------------------------------------------------------------|
D|-9999-9999-----------------------------------------------------------------|
A|-9999-7777-----------------------------------------------------------------|
E|-7777----------------------------------------------------------------------|

Guitar 2
e|---------------------------------------------------------------------------|
B|----7---9-7----------------------------------------------------------------|
G|-88---8--------------------------------------------------------------------|
D|---------------------------------------------------------------------------|
A|---------------------------------------------------------------------------|
E|---------------------------------------------------------------------------|


Verse 2 x2

Guitar 1
e|-----------------------------------------------------------------------------|
B|-----------------------------------------------------------------------------|
G|-----------------------------------------------------------------------------|
D|-------------------99999999-9-88-99-1111-------------------------------------|
A|-9999999999999999--77777777-7-66-77--9-9--9999999999999999--4444444444444444-|
E|-7777777777777777-------------------------7777777777777777--2222222222222222-|

Guitar 2
e|--22--22--22--22------------------22--22--22--22--66--66--66--66-----------|
B|--44--44--44--44--55--55--55--55--44--44--44--44--77--77--77--77-----------|
G|--44--44--44--44--44--44--44--44--44--44--44--44--66--66--66--66-----------|
D|--44--44--44--44--22--22--22--22--44--44--44--44---------------------------|
A|---------------------------------------------------------------------------|
E|---------------------------------------------------------------------------|


Chorus

Pre-verse x4


Solo x2

Guitar 1
e|-----------------------------------------------------------------------------|
B|-----------------------------------------------------------------------------|
G|----------------------------9-88-99-1111-------------------------------------|
D|-------------------99999999-x-xx-xx--x-x-------------------------------------|
A|-9999999999999999--77777777-7-66-77--9-9--9999999999999999--4444444444444444-|
E|-7777777777777777-------------------------7777777777777777--2222222222222222-|

Guitar 2
e|---------------------------------------------------------------------------|
B|---------4-5-4-------------4-5-4----------9-10-9------------9-10-9---------|
G|-----4---------4-------4---------4-----9---------9------9----------9-------|
D|---4---4-------------4---4-----------9--9-------------9---9----------------|
A|-2-----------------2---------------7----------------7----------------------|
E|---------------------------------------------------------------------------|

e|---------------------------------------------------------------------------|
B|---------4-5-4------------4-5-4--------------------------------------------|
G|-----4---------4------4---------4-----3---b4-3----3---b4-------------------|
D|---4---4------------4---4-----------4---4-------4---4----4-----------------|
A|-2----------------2--------------------------------------------------------|
E|---------------------------------------------------------------------------|


Chorus

Guitar 1
e|---------------------------------------------------------------------------|
B|---------------------------88888888----------------------------------------|
G|-------------------9999999999999999----------------------------------------|
D|-9999999999999999--9999999999999999--9999999999999999--4444444444444444----|
A|-9999999999999999--7777777777777777--9999999999999999--4444444444444444----|
E|-7777777777777777--------------------7777777777777777--2222222222222222----|

e|---------------------------------------------------------------------------|
B|---------------------------88888888----------------------------------------|
G|-------------------9999999999999999----------------------------------------|
D|-9999999999999999--9999999999999999--99999999--444-------------------------|
A|-9999999999999999--7777777777777777--99999999--444-------------------------|
E|-7777777777777777--------------------77777777--222-------------------------|


Guitar 2
e|---------------------------------------------------------------------------|
B|---------------------------------------------------------------------------|
G|-1616161616161616-1414141414141414-13131313-161616--13-1212121212121212----|
D|--x-x-x-x-x-x-x-x--x-x-x-x-x-x-x-x--x-x-x-x--x-x-x--x--x-x-x-x-x-x-x-x-----|
A|-1414141414141414-1212121212121212-11111111-141414--11-1010101010101010----|
E|---------------------------------------------------------------------------|

e|---------------------------------------------------------------------------|
B|---------------------------------------------------------------------------|
G|-1616161616161616-1414141414141414-1111111111111111-1515151515151515-------|
D|--x-x-x-x-x-x-x-x--x-x-x-x-x-x-x-x-x-x-x-x-x-x-x-x--x-x-x-x-x-x-x-x--------|
A|-1414141414141414-1212121212121212-9-9-9-9-9-9-9-9--1313131313131313-------|
E|---------------------------------------------------------------------------|

e|---------------------------------------------------------------------------|
B|---------------------------------------------------------------------------|
G|-1616161616161616-1414141414141414-13131313-161616--13-1212121212121212----|
D|--x-x-x-x-x-x-x-x--x-x-x-x-x-x-x-x--x-x-x-x--x-x-x--x--x-x-x-x-x-x-x-x-----|
A|-1414141414141414-1212121212121212-11111111-141414--11-1010101010101010----|
E|---------------------------------------------------------------------------|

e|---------------------------------------------------------------------------|
B|---------------------------------------------------------------------------|
G|-1616161616161616-111111---------------------------------------------------|
D|--x-x-x-x-x-x-x-x-x-x-x----------------------------------------------------|
A|-1414141414141414-9-9-9----------------------------------------------------|
E|---------------------------------------------------------------------------|

Pre-verse x8

End on B

-------------------------------------------------------------------------------
		     Murder City - Green Day
-------------------------------------------------------------------------------
Tabbed by: Zuriel Rivera Zuñiga
Tuning: Standard
I. Intro
e|--14-14--14-14--14--|
B|--------------------| x4
G|--------------------|
D|--------------------|
A|--------------------|
E|--------------------|

II. Chorus x2
e|-------------------------------------------|
B|-------------------------------------------|
G|--4-(x16)-8-(x16)---------13-(x8)-12-(x8)--|
D|--4-------8-------6-(x16)------------------|
A|--2-------6-------6-------11------10-------|
E|------------------4------------------------|

III. Verse x2
e|---------------------------------------------------------------|
B|---------------------------------------------------------------|
G|---------------------------------------------------------------|
D|----------------8-8-8-8-8-8-8-8--------------------------------|
A|--9-9-9-9-9-9-9-6-6-6-6-6-6-6-6-6-6-6-6-6-6-6-6-6-6-6-6-6-6-6--|
E|--7-7-7-7-7-7-7-----------------4-4-4-4-4-4-4-4-4-4-4-4-4-4-4--|
      : : : : : : : : : : : : : :   : : : : : : : : : : : : : :

e|---------------------------------------------------------------|
B|---------------------------------------------------------------|
G|---------------------------------------------------------------|
D|--9-9-9-9-9-9-9-----------------6-6-6-6-6-6-6-6-6-6-6-6-6-6-6--|
A|--7-7-7-7-7-7-7-9-9-9-9-9-9-9-9-4-4-4-4-4-4-4-4-4-4-4-4-4-4-4--|
E|----------------7-7-7-7-7-7-7-7--------------------------------|
      : : : : : : : : : : : : : :   : : : : : : : : : : : : : :

IV. Pre-Chorus
e|--------------|
B|--------------|
G|--9-(x16)-12--|
D|--9-----------|
A|--7-------10--|
E|--------------|

V. Repeat Chorus

VI. Solo x2
e|---------------------------------------------------------------|
B|--6---6---6--6--6--6---6---6--6--6---8---8--8--8--8--8--9-10---|
G|--9b--9b--9b-9b-9b-9b--9b--9b-9b-9b-11b-11b11b11b11b11b12b13b--|
D|---------------------------------------------------------------|
A|---------------------------------------------------------------|
E|---------------------------------------------------------------|

e|------------------------------------------------------------------------|
B|---9---9---9--9--9--9---9---9--9--9--9---9---9--9--9--8---8---8--8--8---|
G|--12b-12b-12b12b12b12b-12b-12b12b12b12b-12b-12b12b12b11b-11b-11b11b11b--|
D|------------------------------------------------------------------------|
A|------------------------------------------------------------------------|
E|------------------------------------------------------------------------|

VII. Repeat Verse

VIII. Repeat Pre-Chorus

IX. Repeat Chorus

X. Out Chorus
Solo Repeat Over Chorus

-------------------------------------------------------------------------------
		     ?Viva La Gloria?(Little Girl) - Green Day
-------------------------------------------------------------------------------
Tabbed by: Zuriel Rivera Zuñiga
Tuning: Standard

I. Intro Verse
e|------------------------------------------------------------------------|
B|------------------------------------------------------------------------|
G|------------------6-6-6-6-6-6-6-6---------------------------------------|
D|--3-3-3-3-3-3-3-3-6-6-6-6-6-6-6-6-10-10-10-10-10-8-6-5-6-3-3-3-3-3-3-3--|
A|--3-3-3-3-3-3-3-3-4-4-4-4-4-4-4-4-10-10-10-10-10-8-6-5-6-3-3-3-3-3-3-3--|
E|--1-1-1-1-1-1-1-1------------------8--8--8--8--8-6-4-3-4-1-1-1-1-1-1-1--|

e|-------------------------------------------------------------------------------|
B|-------------------------------------------------------------------------------|
G|------------------6-6-6-6-6-6-6-6----------------------------------------------|
D|--3-3-3-3-3-3-3-3-6-6-6-6-6-6-6-6-10-10-10-10-10-10-10-10-10-10-10-10----------|
A|--3-3-3-3-3-3-3-3-4-4-4-4-4-4-4-4-10-10-10-10-10-10-10-10-10-10-10-10----------|
E|--1-1-1-1-1-1-1-1------------------8--8--8--8--8--8--8--8--8--8--8--8-8-6-4-3--|

II. Verse
e|------------------------------------------------------------------------|
B|---7-(x8)-----------------------7-(x40)-----------------------7-(x8)----|
G|--10----------------6--6--6-6--10-----------------6--6--6-6--10---------|
D|-----------3-3--3---6--6--6-6------------3-3--3---6--6--6-6----------\--|
A|-----------3-3--3---4--4--4-4------------3-3--3---4--4--4-4----------\--|
E|-----------1-1--1------------------------1-1--1----------------------\--|

III. Chorus
e|------------------------------------------------------------------------|
B|------------------------------------------------------------------------|
G|------------------6-6-6-6-6-6-6-6---------------------------------------|
D|--3-3-3-3-3-3-3-3-6-6-6-6-6-6-6-6-10-10-10-10-10-8-6-5-6-3-3-3-3-3-3-3--|
A|--3-3-3-3-3-3-3-3-4-4-4-4-4-4-4-4-10-10-10-10-10-8-6-5-6-3-3-3-3-3-3-3--|
E|--1-1-1-1-1-1-1-1------------------8--8--8--8--8-6-4-3-4-1-1-1-1-1-1-1--|

e|------------------------------------------------------------------------------------------|
B|------------------------------------------------------------------------------------------|
G|------------------6-6-6-6-6-6-6-6---------------------------------------------------------|
D|--3-3-3-3-3-3-3-3-6-6-6-6-6-6-6-6-10-10-10-10-10-10-10-10-10-10-10-10-10-8-6-5-6-3-(x16)--|
A|--3-3-3-3-3-3-3-3-4-4-4-4-4-4-4-4-10-10-10-10-10-10-10-10-10-10-10-10-10-8-6-5-6-3--------|
E|--1-1-1-1-1-1-1-1------------------8--8--8--8--8--8--8--8--8--8--8--8--8-6-4-3-4-1--------|

IV. Bridge
e|-----------------------------------|    |------------|
B|-----------------------------------| x3 |------------|
G|--6-6-6-6-6-6-6-6------------------|    |------------|
D|--6-6-6-6-6-6-6-6-6-6-6-6-6-6-6-6--|    |--10-(x16)--|
A|--4-4-4-4-4-4-4-4-6-6-6-6-6-6-6-6--|    |--10--------|
E|------------------4-4-4-4-4-4-4-4--|    |---8--------|

V. Solo
e|-------------------------------------------------------------------------------|
B|-------------------------------13----------------------------------------------| x3
G|--10-12-13--12-10-10--10-12-13----12-10-10--10-12-13--12-10-8--8-8-----12--10--|
D|-------------------------------------------------------------------10----------|
A|-------------------------------------------------------------------------------|
E|-------------------------------------------------------------------------------|

e|---------------------------------------------------------------------------------|
B|-------------------------------13---------------------------12b-12b-15b-15b-17b--|
G|--10-12-13--12-10-10--10-12-13----12-10-10--10-12-13--12-10----------------------|
D|---------------------------------------------------------------------------------|
A|---------------------------------------------------------------------------------|
E|---------------------------------------------------------------------------------|

VI. Outro
e|------------------------------------------------------------------------|
B|------------------------------------------------------------------------|
G|------------------6-6-6-6-6-6-6-6---------------------------------------|
D|--3-3-3-3-3-3-3-3-6-6-6-6-6-6-6-6-10-10-10-10-10-8-6-5-6-3-3-3-3-3-3-3--|
A|--3-3-3-3-3-3-3-3-4-4-4-4-4-4-4-4-10-10-10-10-10-8-6-5-6-3-3-3-3-3-3-3--|
E|--1-1-1-1-1-1-1-1------------------8--8--8--8--8-6-4-3-4-1-1-1-1-1-1-1--|

e|---------------------------------------------------------------------------------|
B|---------------------------------------------------------------------------------|
G|------------------6-6-6-6-6-6-6-6------------------------------------------------|
D|--3-3-3-3-3-3-3-3-6-6-6-6-6-6-6-6-10-10-10-10-10-10-10-10-10-10-10-10------------|
A|--3-3-3-3-3-3-3-3-4-4-4-4-4-4-4-4-10-10-10-10-10-10-10-10-10-10-10-10------------|
E|--1-1-1-1-1-1-1-1------------------8--8--8--8--8--8--8--8--8--8--8--8-8-6-4-3----|
-----------------------------------------------------------------------------------|
			  Restless Heart Syndrome - Green Day
-------------------------------------------------------------------------------
Really Hard one I´m Working on Solo

-------------------------------------------------------------------------------
		 Horseshoes And Handgrenades - Green Day
-------------------------------------------------------------------------------
Tabbed by: Zuriel Rivera Zuñiga
Tuning: Standard

This Song Have 2 Guitars But I Have figured out Only The First Which is Pretty Awesome
This is my Favorite Song of the Whole Album Followed By Murder City And ¡Viva La Gloria! 
think Its Perfectly Tabbed
or At Least 99.9% Of Correct
When I Figured Out The second Guitar I Will Add It

e|---------------------|
B|---------------------|
G|-------99------------|  X3
D|--99-x-xx-xx777-444--|
A|--99-x-77-xx777-444--|
E|--77-x----xx555-222--|

e|----------------------|
B|----------------------|
G|-------9--------------|
D|--9-99-x--xx-4-4-4-4--|
A|--9-99-7--xx-2-2-2-2--|
E|--7-77----xx-2-2-2-2--|


e|---------------------|
B|---------------------|
G|-------99------------|  X2
D|--99-x-xx-xx777-444--|
A|--99-x-77-xx777-444--|
E|--77-x----xx555-222--|


e|---------------------------------------|
B|---------------------------------------|
G|---------------------------------------|
D|--99999999--77777777--66666666--55555--|
A|--77777777--55555555--44444444--33333--|
E|--77777777--55555555--44444444--33333--|

e|--------------------|
B|--------------------|
G|-------9------------|  X8
D|--9-99-x-xx777-444--|
A|--9-99-7-xx777-444--|
E|--7-77---xx555-222--|

e|------------------------------------------------------|
B|------------------------------------------------------|
G|--9999999-9----------------------99999999-------------|
D|--7777777-7-7-7-7-99999999-7-7-7-99999999-4444444444--|
A|--7777777-7-5-5-5-99999999-5-5-5-77777777-4444444444--|
E|------------5-5-5-77777777-5-5-5----------2222222222--|


e|--------------------|
B|--------------------|
G|-------9------------|  X8
D|--9-99-x-xx777-444--|
A|--9-99-7-xx777-444--|
E|--7-77---xx555-222--|

e|------------------------------------------------------|
B|------------------------------------------------------|
G|--9999999-9----------------------99999999-------------|
D|--7777777-7-7-7-7-99999999-7-7-7-99999999-4444444444--|
A|--7777777-7-5-5-5-99999999-5-5-5-77777777-4444444444--|
E|------------5-5-5-77777777-5-5-5----------2222222222--|


e|------------------------------|
B|------------------------------|
G|------------------------------|
D|--999-7--999-7--999-7--999-7--|
A|--999-7--999-7--999-7--999-7--|
E|--777-5--777-5--777-5--777-5--|

e|--------------------|
B|--------------------|
G|-------9------------|  x4
D|--9-99-x-xx777-444--|
A|--9-99-7-xx777-444--|
E|--7-77---xx555-222--|

e|---------------------------------------|
B|---------------------------------------|
G|---------------------------------------|
D|--99999999--77777777--66666666--55555--|  x4
A|--77777777--55555555--44444444--33333--|
E|--77777777--55555555--44444444--33333--|

e|--------------------|
B|--------------------|
G|-------9------------|
D|--9-99-x-xx777-444--|
A|--9-99-7-xx777-444--|
E|--7-77---xx555-222--|

e|----------------------|
B|----------------------|
G|-------9--------------|
D|--9-99-x--xx-4-4-4-4--|
A|--9-99-7--xx-2-2-2-2--|
E|--7-77----xx-2-2-2-2--|

e|--------------------|
B|--------------------|
G|-------9------------|  x4
D|--9-99-x-xx777-444--|
A|--9-99-7-xx777-444--|
E|--7-77---xx555-222--|

e|--------------|
B|--------------|
G|---99----999--|
D|-9-xx-99-xxx--|    x4
A|-9-77-77-777--|
E|-7----77------|


EnDs In:
e|-----------|
B|-----------|
G|-----------|
D|---999-7---|
A|---999-7---|
E|---777-5---|

-------------------------------------------------------------------------------
	        The Static Age - Green Day
-------------------------------------------------------------------------------
Tabbed by: Zuriel Rivera Zuñiga
Tuning: Standard

Intro/Verse

Guitar 1
e|----------------------------------------------------------------------------|
B|0000000000000000-00000000-00000-0-0000000000000000-00000\0/0-0-(  )-0-------|
G|4444444444444444-99999999-66666-9-8888888888888888-99999\8/9-11(x8)-13--(X4)|
D|----------------------------------------------------------------------------|
A|----------------------------------------------------------------------------|
E|----------------------------------------------------------------------------|

Pre-Chorus

Guitar 1  I spaced these out so it wouldn't be confusing
e|---------------------------------------------------------------------------|
B|-0--0--0--0--0--0--0--0---0--0--0--0--0--0--0--0---------------------------|
G|-11-11-11-11-11-11-11-11--11-11-11-11-11-11-11-11--------------------------|
D|---------------------------------------------------------------------------|
A|---------------------------------------------------------------------------|
E|---------------------------------------------------------------------------|

Guitar 2                                  Slowly release palm mute
e|---------------------------------------------------------------------------|
B|---------------------------------------------------------------------------|
G|---------------------------------------------------------------------------|
D|--------------------------44-0-4---44-0-4-4444444444444444-----------------|
A|--------------------------44-0-4---44-0-4-4444444444444444-----------------|
E|--------------------------22-0-2---22-0-2-2222222222222222-----------------|
                                            ........

Chorus
e|-----------------------|---------------------------------------------------|
B|-----------------------|---------------------------------------------------|
G|-44-4444---------------|--44-4444------------------------------------------|
D|-44-4444-222-444--(x3)-|--44-4444--44444444--------------------------------|
A|-22-2222-222-444-------|--22-2222--44444444--------------------------------|
E|---------000-222-------|-----------22222222--------------------------------|

Verse
Chorus x2

The second time, the chorus ends like this
e|---------------------------------------------------------------------------|
B|---------------------------------------------------------------------------|
G|-4444444444444444----------------------------------------------------------|
D|-4444444444444444----------------------------------------------------------|
A|-2222222222222222----------------------------------------------------------|
E|---------------------------------------------------------------------------|

Bridge
e|---------------------------------------------------------------------------|
B|---------------------------------------------------------------------------|
G|-9999999999999999------------------9999999999999999------------------------|
D|-9999999999999999-9999999999999999-9999999999999999------------------------|
A|-7777777777777777-9999999999999999-7777777777777777------------------------|
E|------------------7777777777777777-----------------------------------------|

e|---------------------------------------------------------------------------|
B|---------------------------------------------------------------------------|
G|-11-11-11-11-11-9-11-1212121212121212--------------------------------------|
D|-11-11-11-11-11-9-11-1212121212121212--------------------------------------|
A|-9--9--9--9--9--7--9-1010101010101010--------------------------------------|
E|---------------------------------------------------------------------------|

Solo

Guitar 1
e|----------------------------------------------------------------------------|
B|----------------------------------------------------------------------------|
G|555555555555-9-7-5-1010101010101010-777777-10-99999999-7-5-1010101010101010-|
D|xxxxxxxxxxxx-x-x-x-x-x-x-x-x-x-x-x--xxxxxx-x--xxxxxxxx-x-x-x-x-x-x-x-x-x-x--|
A|333333333333-7-5-3-8-8-8-8-8-8-8-8--555555-8--77777777-5-3-8-8-8-8-8-8-8-8--|
E|----------------------------------------------------------------------------|

e|----------------------------|---------------------------------------------|
B|----------------------------|---------------------------------------------|
G|-9-10-1212121212121212------|-13-13-13-13-13-13-13-13-14141414-15151515---|
D|-x-x--x-x-x-x-x-x-x-x--(X2)-|--x--x--x--x--x--x--x--x--x-x-x-x--x-x-x-x---|
A|-7-8--1010101010101010------|-11-11-11-11-11-11-11-11-12121212-13131313---|
E|----------------------------|---------------------------------------------|

e|--------------------------------------------------------------------------|
B|--------------------------------------------------------------------------|
G|-16-17-18-19--------------------------------------------------------------|
D|--x-x---x--x--------------------------------------------------------------|
A|-14-15-16-17--------------------------------------------------------------|
E|--------------------------------------------------------------------------|

Guitar 2
e|------------------------------------------|--------------------------------|
B|------------------------------------------|--------------------------------|
G|-5555555555555555-------------------------|--------------------------------|
D|-5555555555555555-33333333-55555555--(x4)-|-66666666-7777-8888-9-10-11-12--|
A|-3333333333333333-33333333-55555555-------|-66666666-7777-8888-9-10-11-12--|
E|------------------11111111-33333333-------|-44444444-5555-6666-7--8--9-10--|

KEY CHANGE!

Verse

Guitar 1
e|------------------------------------------|---------------------------------|
B|------------------------------------------|---------------------------------|
G|-7777777777777777-------------------------|---------------------------------|
D|-7777777777777777-55555555-77777777--(x5)-|-77-0-7--77-0-7-7777777777777777-|
A|-5555555555555555-55555555-77777777-------|-77-0-7--77-0-7-7777777777777777-|
E|------------------33333333-55555555-------|-55-0-5--55-0-5-5555555555555555-|

                                                             ........
Guitar 2
e|---------------------------------------------------------------------------|
B|--8~--7~---5~----8~--7~--11~-----------------------------------------------|
G|-------------------------------(x4)----------------------------------------|
D|---------------------------------------------------------------------------|
A|---------------------------------------------------------------------------|
E|---------------------------------------------------------------------------|

Chorus

 |Play this first part 3 times              |Then this
e|-----------------------|------------------|--------------------------------------|
B|-----------------------|------------------|--------------------------------------|
G|-77-7777---------------|-77-7777----------|-7777777777777777-33333333-55555555-7-|
D|-77-7777-555-777--(x3)-|-77-7777-77777777-|-7777777777777777-33333333-55555555-7-|
A|-55-5555-555-777-------|-55-5555-77777777-|-5555555555555555-11111111-33333333-5-|
E|---------333-555-------|---------55555555-|--------------------------------------|

-------------------------------------------------------------------------------
		  21 Guns - Green Day
-------------------------------------------------------------------------------
Tabbed by: Zuriel Rivera Zuñiga
Tuning: Standard

INTRO:

e-----1-----------5---------|
B----------3------------5---|
G---------------------------|
D---------------------------|
A---------------------------|
E---------------------------|


VERSE:

Play it with Chords


Dm       A#                F        C
  Do you know what's worth fighting for,
Dm          A#        F     C
  When it's not worth dying for?
Dm        A#        F      C
  Does it take your breath away
         A#                C
And you feel yourself suffocating?

Dm         A#         F        C
  Does the pain weigh out the pride?
Dm        A#          F        C
  And you look for a place to hide?
Dm        A#             F      C
  Did someone break your heart inside?
 A#
You're in ruins

CHORUS:

One, 21 guns
Lay down your arms
Give up the fight
One, 21 guns
Throw up your arms into the sky,
You and I


e-----|----------------------------------------    |       -------------|
B-----|----------------------------------------    |       -------------|
G--5--|----------77--5555--3333------55555555--    |       3333------5--|
D--5--|--33--22--77--5555--3333-3333-55555555-- x2 | then  3333-3333-5--|
A--3--|--33--33--55--3333--1111-3333-33333333--    |       1111-3333-3--|
E-----|--11--00-----------------1111-----------    |       -----1111----|

                                                            (You and I)


VERSE:

Dm          A#     F          C
  When you're at the end of the road
Dm        A#       F             C
  And you lost all sense of control
Dm        A#            F            C
 And your thoughts have taken their toll
         A#                              C
When your mind breaks the spirit of your soul
Dm     A#             F        C
  Your faith walks on broken glass
Dm         A#      F        C
  And the hangover doesn't pass
Dm          A#   F         C
  Nothing's ever built to last
 A#
You're in ruins.


CHORUS:


One, 21 guns
Lay down your arms
Give up the fight
One, 21 guns
Throw up your arms into the sky,
You and I

e-----|----------------------------------------    |       --------------------|
B-----|----------------------------------------    |       --------------------|
G--5--|----------77--5555--3333------55555555--    |       3333------55555555--|
D--5--|--33--22--77--5555--3333-3333-55555555-- x2 | then  3333-3333-55555555--|
A--3--|--33--33--55--3333--1111-3333-33333333--    |       1111-3333-33333333--|
E-----|--11--00-----------------1111-----------    |       -----1111-----------|

BRIDGE:


Did you try to live on your own
When you burned down the house and home?
Did you stand too close to the fire?
Like a liar looking for forgiveness from a stone


e--------------------|----------------------   |------------------------|
B--------------------|----------------------   |------------------------|
G--77--33------5555--|--77--33--------2222--   |--33333333-55555555-----|
D--77--33--33--5555--|--77--33--3333--2222-- x2|--33333333-55555555-----|
A--55--11--33--3333--|--55--11--3311--0000--   |--11111111-33333333-----|
E----------11--------|----------1111--------   |------------------------|


GUITAR SOLO:


e----5----5-----------------------------------------   |--------------------------------|
B--6--6-8---6---6-----6-----3----------5-5-5-5-6-8--   |----3----------5-5-5-5-5-5-5-5--|
G-------------7---7-9---7-3---3-5-3-2---------------   |--3---3-5-3-2-------------------|
D--------------------------------------------------- x2|--------------------------------|
A---------------------------------------------------   |--------------------------------|
E---------------------------------------------------   |--------------------------------|

INTRO:

e-----1-----------5---------|
B----------3------------5---|
G---------------------------| x2
D---------------------------|
A---------------------------|
E---------------------------|

VERSE:

Dm          A#       F           C
  When it's time to live and let die
Dm        A#         F       C
  And you can't get another try
Dm           A#          F        C
  Something inside this heart has died
A#
You're in ruins.

CHORUS:

One, 21 guns
Lay down your arms
Give up the fight
One, 21 guns
Throw up your arms into the sky,
You and I

e----------------------------------------    |
B----------------------------------------    |
G----------77--5555--3333------55555555--    |
D--33--22--77--5555--3333-3333-55555555-- x2 |
A--33--33--55--3333--1111-3333-33333333--    |
E--11--00-----------------1111-----------    |


e----------------------------------------    |       --------------------|
B----------------------------------------    |       --------------------|
G----------77--5555--3333------55555555--    |       3333------5---------|
D--33--22--77--5555--3333-3333-55555555-- x2 | then  3333-3333-5---------|
A--33--33--55--3333--1111-3333-33333333--    |       1111-3333-3---------|
E--11--00-----------------1111-----------    |       -----1111-----------|

-------------------------------------------------------------------------------
		   American Eulogy - Green Day
-------------------------------------------------------------------------------
Tabbed by: Zuriel Rivera Zuñiga
Tuning: Standard

Part 1: Mass Hysteria

Intro/Chorus (X4)
e|---------------------------------------------------------------------------|
B|---------------------------------------------------------------------------|
G|--5-66---------------------------------------------------------------------|
D|--5-66--66666666-----------------------------------------------------------|
A|--3-44--66666666-----------------------------------------------------------|
E|--------44444444-----------------------------------------------------------|

Guitar 2 (X4)
e|-------99------------------------------------------------------------------|
B|---------99----------------------------------------------------------------|
G|---------------------------------------------------------------------------|
D|---------------------------------------------------------------------------|
A|---------------------------------------------------------------------------|
E|---------------------------------------------------------------------------|

Verse (X2)
e|---------------------------------------------------------------------------|
B|---------------------------------------------------------------------------|
G|--666666-----------666666----------666666----------------------------------|
D|--666666--66666666-666666-44444444-666666-6666666-44444444-66666666--------|
A|--444444--66666666-444444-44444444-444444-6666666-44444444-66666666--------|
E|----------44444444--------22222222--------4444444-22222222-44444444--------|

Intro/Chorus
Verse
Intro/Chorus

Interlude
e|---------------------------------------------------------------------------|
B|----------6---------------6---------------2--------------------------------|
G|------6-----6---6-----6-----6---6-----3-----3---3---------5----------------|
D|----6---6-----6-----6---6-----6-----3---3-----3-------6-----6---6----------|
A|--4---------------3---------------1-----------------6---6-----6------------|
E|--------------------------------------------------4------------------------|

e|---------------------------------------------------------------------------|
B|--------------------------6---------------6---------------6----------------|
G|----------3-----------6-----6---6-----6-----6---6-----6-----6---6----------|
D|------4-----4---4---6---6-----6-----6---6-----6-----6---6-----6------------|
A|----4---4-----4-------------------4---------------4------------------------|
E|--2---------------4--------------------------------------------------------|

e|---------------------------------------------------------------------------|
B|--------------------------4~-----------------------------------------------|
G|-6~---5~---3~-------------3~-----------------------------------------------|
D|-6~---6~---3~---6~---4~---1~----5-66----5-66-------------------------------|
A|-4~---3~---1~---6~---4~---------5-66----5-66-------------------------------|
E|----------------4~---2~---------3-44----3-44-------------------------------|

Solo

Guitar 1
e|9~\8~\6~\4~/~8/11~---9~\8~\6~\4~/5~/10\------------------------------------|
B|---------------------------------------------------------------------------|
G|---------------------------------------------------------------------------|
D|---------------------------------------------------------------------------|
A|---------------------------------------------------------------------------|
E|---------------------------------------------------------------------------|

Guitar 2
e|---------------------------------------------------------------------------|
B|---------------------------------------------------------------------------|
G|------------------------------6----6-------------------------------------7-|
D|--444444444444444-66666666-66-6-66-6--444444444444444--66666666-77777777-7-|
A|--444444444444444-66666666-66-4-66-4--4444444444444444-66666666-77777777-5-|
E|--222222222222222-44444444-44---44----2222222222222222-44444444-55555555---|


Part 2-Modern World

Intro
e|----------------------------------------------------------------------------|
B|----------------------------------------------------------------------------|
G|--7-------------7-----------------------------------------------------------|
D|--7-7-5-77-5-7--7-7-5-77-7--------------------------------------------------|
A|--5-7-5-77-5-7--5-7-5-77-7--------------------------------------------------|
E|----5-3-55-3-5----5-3-55-5--------------------------------------------------|


Chorus (X4)
e|---------------------------------------------------------------------------|
B|---------------------------------------------------------------------------|
G|--7777---------------------------------------------------------------------|
D|--7777-7777-5555-7777------------------------------------------------------|
A|--5555-7777-5555-7777------------------------------------------------------|
E|-------5555-3333-5555------------------------------------------------------|


Verse
e|---------------------------------------------------------------------------|
B|---------------------------------------------------------------------------|
G|--77----------77--77--------------77----------77--77----------7------------|
D|--77--77--55--77--77--77--55--77--77--77--55--77--77--77--5-7-7------------|
A|--55--77--55--55--55--77--55--77--55--77--55--55--55--77--5-7-5------------|
E|------55--33----------55--33--55------55--33----------55--3-5--------------|

Chorus (X4)


Bridge
e|---------------------------------------------------------------------------|
B|---------------------------------------------------------------------------|
G|--44444----------------7777-----44444--------------------------------------|
D|--44444-44444444-55555-7777-----44444-44444444-55555--7-7-7-7-7-7-7-7------|
A|--22222-44444444-55555-5555-4~--22222-44444444-55555--7-7-7-7-7-7-7-7------|
E|--------22222222-33333----------------22222222-33333--5-5-5-5-5-5-5-5------|

Solo

Guitar 1
e|---------------------10-------10-12-10--12-12-10-b12-b12-10~---------------|
B|--10~--10-10-8-7~--8----8-7~-----------------------------------------------|
G|---------------------------------------------------------------------------|
D|---------------------------------------------------------------------------|
A|---------------------------------------------------------------------------|
E|---------------------------------------------------------------------------|

Guitar 2 plays this
e|----------------------------|----------------------------------------------|
B|----------------------------|----------------------------------------------|
G|--7777-----------7777-------|--7777----------7-----------------------------|
D|--7777-7777-5555-7777--(X3)-|--7777-7777-5-7-7-----------------------------|
A|--5555-7777-5555-5555-------|--5555-7777-5-7-5-----------------------------|
E|-------5555-3333------------|-------5555-3-5-------------------------------|

Verse. Then this
                             "Cause I don't give a shit about the modern age"
e|-------------------------------------------------------------------------0-|
B|-------------------------------------------------------------------------0-|
G|-----------------------------7-------------------------------------------0-|
D|-----------------------------7-------------------------------------------0-|
A|--5~-------------------------5-------------------------------------------0-|
E|-------------------------------------------------------------------------0-|

Play the chorus until the song fades out

-------------------------------------------------------------------------------
			   See The Light-Green Day
-------------------------------------------------------------------------------
Tabbed by: Zuriel Rivera Zuñiga
Tuning: Standard

The third guitar and solo were sort of hard to tab. I hope this helps anyone
who needs it, though.

Intro

Guitar 1 x8 (clean)
e|-4--6-----------------------------------------------------------------------|
B|-6--4-----------------------------------------------------------------------|
G|-6--5-----------------------------------------------------------------------|
D|-6--6-----------------------------------------------------------------------|
A|-4--6-----------------------------------------------------------------------|
E|----4-----------------------------------------------------------------------|

Guitar 3 Plays this continuously throughout the intro and verse
e|-11----11----11----11---11--------------------------------------------------|
B|----99----99----99----9----9------------------------------------------------|
G|----------------------------------------------------------------------------|
D|----------------------------------------------------------------------------|
A|----------------------------------------------------------------------------|
E|----------------------------------------------------------------------------|


Verse

Guitar 1
e|------------------------|---------------------------------------------------|
B|------------------------|---------------------------------------------------|
G|-6----------------------|-6-------------------------------------------------|
D|-6-6---------------(x3)-|-6-6-----------------------------------------------|
A|-4-6-666666666666-------|-4-6-66666//////////-------------------------------|
E|---4-444444444444-------|---4-44444/////////--------------------------------|

Guitar 2
e|----------------------------------------------------------------------------|
B|---------------------9-999999999999----------------------9-99999------------|
G|-6-----------------6-8-888888888888--6-----------------6-8-88888/////////---|
D|-6-6---------------6-6-666666666666--6-6---------------6-6-66666////////----|
A|-4-6-666666666666--4-----------------4-6-666666666666--4--------------------|
E|---4-444444444444----------------------4-444444444444-----------------------|


Chorus

Guitar 1
e|------------------------------------------|-----------------------------------|
B|------------------------------------------|----------------------------9----9-|
G|-6-66-666-----666------------6------------|-6-66-666-----666-888888888-8-88-8-|
D|-6-66-666-444-666-6-66-666-6-6-6-66--(x3)-|-6-66-666-444-666-888888888-6-88-6-|
A|-4-44-444-444-444-6-66-666-6-4-6-66-------|-4-44-444-444-444-666666666---66---|
E|----------222-----4-44-444-4---4-44-------|----------222----------------------|

Second verse, play the first part 7 times, then play the second part

Chorus, end on Eb for the second part


Solo

Guitar 1 just plays the chorus under the solo

Guitar 2
e|--------------------------8---11-8-----8---8---8-11-8---11-----------------|
B|-6-4------6-7-77-6-66-9-9---9------9-9---9---9--------9--------------------|
G|-----6-66------------------------------------------------------------------|
D|---------------------------------------------------------------------------|
A|---------------------------------------------------------------------------|
E|---------------------------------------------------------------------------|

e|-13-11---------13-14-1414-13-1313----------------------------------16-------|
B|-------14-1414--------------------16----16----16----16----16----16----16-13-|
G|-------------------------------------13----13----13----13----13-------------|
D|----------------------------------------------------------------------------|
A|----------------------------------------------------------------------------|
E|----------------------------------------------------------------------------|

e|--------------------------8---11-8-----8---8---8-11-8---11-----------------|
B|-6-4------6-7-77-6-66-9-9---9------9-9---9---9--------9--------------------|
G|-----6-66------------------------------------------------------------------|
D|---------------------------------------------------------------------------|
A|---------------------------------------------------------------------------|
E|---------------------------------------------------------------------------|

e|-13-11---------13-14-1414-13-1313-11-11---11---11---11---11---11---11---11---11-|
B|-------14-1414--------------------------8----8----8----8----8----8----8----8----|
G|--------------------------------------------------------------------------------|
D|--------------------------------------------------------------------------------|
A|--------------------------------------------------------------------------------|
E|--------------------------------------------------------------------------------|

e|-11---11~-----11-9-8~------------------------------------------------------|
B|----9-9~----9--------------------------------------------------------------|
G|---------------------------------------------------------------------------|
D|---------------------------------------------------------------------------|
A|---------------------------------------------------------------------------|
E|---------------------------------------------------------------------------|

Third verse, play the first part 9 times, then the second

Chorus


Outro

Guitar 1                This plays until the song fades out
e|--------------------|-4-4--------------------------------------------------|
B|--------------------|-6-4--------------------------------------------------|
G|-6------6------6----|-6-5--------------------------------------------------|
D|-6-6----6-6----6-6--|-6-6--------------------------------------------------|
A|-4-6----4-6----4-6--|-4-6--------------------------------------------------|
E|---4------4------4--|---4--------------------------------------------------|

Guitar 2
e|---------------------------------------------------------------------------|
B|---9------9------9---------------------------------------------------------|
G|-6-8----6-8----6-8---------------------------------------------------------|
D|-6-6----6-6----6-6---------------------------------------------------------|
A|-4------4------4-----------------------------------------------------------|
E|---------------------------------------------------------------------------|

Guitar 3 plays the same thing as in the intro

First I want to Thanks Stjimmy34 For tab The Songs That I Can´t
Well That’s All About This Album Which is Great To Play Some Songs Were Difficult To tab Specially
The Ones Who I Could not Tab Then For That Songs You Have The StJimmy34 Versions

Now Im going to tab the B-Sides In I-tunes version, Hearts Collyde and Lights Out From 
Know Your Enemy Single.
Suggest correction
comments
print report bad tab
guest
You may want to rate the tab now too:
select rating
Wanna post a correction for this tab? Suggest correction