Oops, an error
Loading. Please wait.

80 Bass Tab

version 2
version 2

Whole song

Interactive

3,347 views 21 this week
no commentswrite comment
1 2 3 4 5
x 4
add to favorites
launch autoscroll
font size
0
reset
guitar tuner
Autoscroll
slow
fast
+/-
esc
set tempo
stop
Help us to improve Ultimate-Guitar.com Take our survey!
×
Author
Difficulty
intermediate
Song: 80
Band: Green Day
Bassist: Mike Dirnt
Album: Kerplunk
Transcripted by Eric Needreary

Intro

G|---6-6-6-6-----4-4-4-4-----3-3-3-3-----2-2-2-2-----|
D|º-4-4-4-4-4-4-2-2-2-2-2-2-1-1-1-1-1-1-0-0-0-0-0-0-º|
A|º-------------------------------------------------º|
E|---------------------------------------------------|

1st Verse

 \"My mental"...___________"girls like you"__________|
G|---6-6-6-6-----4-4-4-4-----3-3-3-3-----2-2-2-2-----|
D|º-4-4-4-4-4-4-2-2-2-2-2-2-1-1-1-1-1-1-0-0-0-0-0-0-º|
A|º-------------------------------------------------º|
E|---------------------------------------------------|

Pre-Chorus

 \"Everything she does"..."hurt myself"|
G|-------7----------------7------------|
D|º-----------------------------------º|
A|º-5-5-5--3-33-3330-5-5-5--3-33-3330-º|
E|-------------------------------------|

Chorus

 \"If anyone...____________________talking to myself"______________________|
G|----------------7------9-----------------------------------------------7-|
D|------5---------------------------------5-----------------------5h7p5----|
A|--------5-55-555--7-7-7--3-33-3330------------------3-3-3333-33-------5--|
E|-3-3-3-----------------------------3-3-3--1-11-1110----------------------|

 \"Anxiety...______________________against the wall"_______________________|
G|------9---------5------7-----------------------------------------------7-|
D|----------------------------------------5-----------------------5h7p5----|
A|-7-7-7--3-33-333--5-5-5--3-33-3330------------------3-3-3333-33-------5--|
E|-----------------------------------3-3-3--1-11-1110----------------------|

2nd Verse

 \"Sometimes I wonder...___________drunken fool"_____|
G|---6-6-6-6-6---4-4-4-4-4---3-3-3-3-3---2-2-2-2-2---|
D|º-4-4-4-4-4-4-2-2-2-2-2-2-1-1-1-1-1-1-0-0-0-0-0-0-º|
A|º-------------------------------------------------º|
E|---------------------------------------------------|

Pre-Chorus

 \"Everything she does"...trust myself"|
G|-------7----------------7------------|
D|º-----------------------------------º|
A|º-5-5-5--3-33-3330-5-5-5--3-33-3330-º|
E|-------------------------------------|

Chorus

 \"If anyone...____________________talking to myself"______________________|
G|----------------7------9-----------------------------------------------7-|
D|------5---------------------------------5-----------------------5h7p5----|
A|--------5-55-555--7-7-7--3-33-3330------------------3-3-3333-33-------5--|
E|-3-3-3-----------------------------3-3-3--1-11-1110----------------------|

 \"Anxiety...______________________against the wall"______________
G|------9---------5------7----------------------------------------|
D|----------------------------------------5-----------------------|
A|-7-7-7--3-33-333--5-5-5--3-33-3330------------------3-3-3333-33-|
E|-----------------------------------3-3-3--1-11-1110-------------|

Bridge

G|------5---------7------5----------------5---------7------5----------
D|--------------------------------------------------------------------
A|-3-3-3--5-55-555-------------------3-3-3--5-55-555------------------
E|------------------3-3-3--3-33-3330------------------3-3-3--3-33-3330

G|------5--------57--------------------|
D|--------------7----------------------|
A|-3-3-3--5-55-5----557----------------|
E|---------------------3-33-3-33/5-5-5-|

Post-Bridge

 \_________________________________________________x4|
G|---6-6-6-6-6---4-4-4-4-4---3-3-3-3-3---2-2-2-2-2---|
D|º-4-4-4-4-4-4-2-2-2-2-2-2-1-1-1-1-1-1-0-0-0-0-0-0-º|
A|º-------------------------------------------------º|
E|---------------------------------------------------|

Pre-Chorus

 \"Everything she does"...trust myself"|
G|-------7----------------7------------|
D|º-----------------------------------º|
A|º-5-5-5--3-33-3330-5-5-5--3-33-3330-º|
E|-------------------------------------|

Chorus

 \"If anyone...____________________talking to myself"______________________|
G|----------------7------9-----------------------------------------------7-|
D|------5---------------------------------5-----------------------5h7p5----|
A|--------5-55-555--7-7-7--3-33-3330------------------3-3-3333-33-------5--|
E|-3-3-3-----------------------------3-3-3--1-11-1110----------------------|

 \"Anxiety...______________________against the wall"_______________________|
G|------9---------5------7-----------------------------------------------7-|
D|----------------------------------------5-----------------------5h7p5----|
A|-7-7-7--3-33-333--5-5-5--3-33-3330------------------3-3-3333-33-------5--|
E|-----------------------------------3-3-3--1-11-1110----------------------|

Outro
 \__________________________________________Fade Out_|
G|---6-6-6-6-6---4-4-4-4-4---3-3-3-3-3---2-2-2-2-2---|
D|º-4-4-4-4-4-4-2-2-2-2-2-2-1-1-1-1-1-1-0-0-0-0-0-0-º|
A|º-------------------------------------------------º|
E|---------------------------------------------------|
Suggest correction
comments
print report bad tab
guest
You may want to rate the tab now too:
select rating
Wanna post a correction for this tab? Suggest correction