Oops, an error
Loading. Please wait.

80 bass

version 3
version 3

Whole song

Interactive

121 views 6 this week
no commentswrite comment
1 2 3 4 5
3 more votes to show rating
add to favorites
×
Save as Personal and add changes to this tab that will be seen only by you. Learn more ›
×
You can save this tab as Personal to edit and correct it or add notes. All changes will be seen only by you. Learn more »
launch autoscroll
font size
0
reset
guitar tuner
backing track
0:00
0:00
edit
Autoscroll
slow
fast
+/-
esc
set tempo
stop
[Intro]

Gb|------------------|---------------|---------------|-----------------|
Db|----12---12--12---|--10--10--10---|--10--10--10---|---8--8--8-------|
Ab|-10---10---10--10-|-8---8---8---8-|-7---7---7---7-|-6--6--6--6-6----|
Eb|------------------|---------------|---------------|-----------------|

Gb|------------------|---------------|---------------|-----------------|
Db|----12---12--12---|--10--10--10---|--10--10--10---|---8--8--8-------|
Ab|-10---10---10--10-|-8---8---8---8-|-7---7---7---7-|-6--6--6--6-6----|
Eb|------------------|---------------|---------------|-----------------|

[1st Verse]

Gb|------------------|---------------|---------------|-----------------|
Db|----12---12--12---|--10--10--10---|--10--10--10---|---8--8--8-------|
Ab|-10---10---10--10-|-8---8---8---8-|-7---7---7---7-|-6--6--6--6-6----|
Eb|------------------|---------------|---------------|-----------------|

Gb|------------------|---------------|---------------|-----------------|
Db|----12---12--12---|--10--10--10---|--10--10--10---|---8--8--8-------|
Ab|-10---10---10--10-|-8---8---8---8-|-7---7---7---7-|-6--6--6--6-6----|
Eb|------------------|---------------|---------------|-----------------|

Gb|------------------|---------------|---------------|-----------------|
Db|----12---12--12---|--10--10--10---|--10--10--10---|---8--8--8-------|
Ab|-10---10---10--10-|-8---8---8---8-|-7---7---7---7-|-6--6--6--6-6----|
Eb|------------------|---------------|---------------|-----------------|

Gb|------------------|---------------|---------------|-----------------|
Db|----12---12--12---|--10--10--10---|--10--10--10---|---8--8--8-------|
Ab|-10---10---10--10-|-8---8---8---8-|-7---7---7---7-|-6--6--6--6-6----|
Eb|------------------|---------------|---------------|-----------------|

[Pre-Chorus]

Gb|--------|--------------|-------|----------------|
Db|-------7|--------------|------7|----------------|
Ab|--5-5-5-|-3-3-3-3-3-3-0|-5-5-5-|-3-3-3-3-3-3-0--|
Eb|--------|--------------|-------|----------------|

[Chorus]

Gb|-------|------------7|------9|--------------|-------|--------------|--------------------------|
Db|------5|-------------|-------|--------------|------5|--------------|---------------5-5h7p5-3-5|
Ab|-------|-5-5-5-5-5-5-|-7-7-7-|-3-3-3-3-3-3-0|-------|--------------|3-3-3-3-3-3-3-3-----------|
Eb|-3-3-3-|-------------|-------|--------------|-3-3-3-|-1-1-1-1-1-1-0|--------------------------|

Gb|-------|------------7|------9|--------------|-------|--------------|--------------------------|
Db|------5|-------------|-------|--------------|------5|--------------|---------------5-5h7p5-3-5|
Ab|-------|-5-5-5-5-5-5-|-7-7-7-|-3-3-3-3-3-3-0|-------|--------------|3-3-3-3-3-3-3-3-----------|
Eb|-3-3-3-|-------------|-------|--------------|-3-3-3-|-1-1-1-1-1-1-0|--------------------------|

[2nd Verse]

Gb|------------------|---------------|---------------|-----------------|
Db|----12---12--12---|--10--10--10---|--10--10--10---|---8--8--8-------|
Ab|-10---10---10--10-|-8---8---8---8-|-7---7---7---7-|-6--6--6--6-6----|
Eb|------------------|---------------|---------------|-----------------|

Gb|------------------|---------------|---------------|-----------------|
Db|----12---12--12---|--10--10--10---|--10--10--10---|---8--8--8-------|
Ab|-10---10---10--10-|-8---8---8---8-|-7---7---7---7-|-6--6--6--6-6----|
Eb|------------------|---------------|---------------|-----------------|

Gb|------------------|---------------|---------------|-----------------|
Db|----12---12--12---|--10--10--10---|--10--10--10---|---8--8--8-------|
Ab|-10---10---10--10-|-8---8---8---8-|-7---7---7---7-|-6--6--6--6-6----|
Eb|------------------|---------------|---------------|-----------------|

Gb|------------------|---------------|---------------|-----------------|
Db|----12---12--12---|--10--10--10---|--10--10--10---|---8--8--8-------|
Ab|-10---10---10--10-|-8---8---8---8-|-7---7---7---7-|-6--6--6--6-6----|
Eb|------------------|---------------|---------------|-----------------|

[Pre-Chorus]

Gb|--------|--------------|-------|----------------|
Db|-------7|--------------|------7|----------------|
Ab|--5-5-5-|-3-3-3-3-3-3-0|-5-5-5-|-3-3-3-3-3-3-0--|
Eb|--------|--------------|-------|----------------|

[Chorus]

Gb|-------|------------7|------9|--------------|-------|--------------|--------------------------|
Db|------5|-------------|-------|--------------|------5|--------------|---------------5-5h7p5-3-5|
Ab|-------|-5-5-5-5-5-5-|-7-7-7-|-3-3-3-3-3-3-0|-------|--------------|3-3-3-3-3-3-3-3-----------|
Eb|-3-3-3-|-------------|-------|--------------|-3-3-3-|-1-1-1-1-1-1-0|--------------------------|

Gb|-------|------------7|------9|--------------|-------|--------------|--------------------------|
Db|------5|-------------|-------|--------------|------5|--------------|---------------5-5h7p5-3-5|
Ab|-------|-5-5-5-5-5-5-|-7-7-7-|-3-3-3-3-3-3-0|-------|--------------|3-3-3-3-3-3-3-3-----------|
Eb|-3-3-3-|-------------|-------|--------------|-3-3-3-|-1-1-1-1-1-1-0|--------------------------|

[Bridge]

Gb|------5|------------7|------5|--------------|-------5|------------7|------5|---------------|
Db|-------|-------------|-------|--------------|--------|-------------|-------|---------------|
Ab|-3-3-3-|-5-5-5-5-5-5-|-------|--------------|-3-3-3--|-5-5-5-5-5-5-|-------|---------------|
Eb|-------|-------------|-3-3-3-|-3-3-3-3-3-3-0|--------|-------------|-3-3-3-|-3-3-3-3-3-3-0-|

Gb|------5|---------5-7|------|-------------------|
Db|-------|--------7---|------|-------------------|
Ab|-3-3-3-|-5-5-5-5----|-5-5-7|-------------------|
Eb|-------|------------|------|-3-3-3-3-3-3/5-5-5-|

[End Bridge]

Gb|------------------|---------------|---------------|-----------------|
Db|----12---12--12---|--10--10--10---|--10--10--10---|---8--8--8-------|
Ab|-10---10---10--10-|-8---8---8---8-|-7---7---7---7-|-6--6--6--6-6----|
Eb|------------------|---------------|---------------|-----------------|

Gb|------------------|---------------|---------------|-----------------|
Db|----12---12--12---|--10--10--10---|--10--10--10---|---8--8--8-------|
Ab|-10---10---10--10-|-8---8---8---8-|-7---7---7---7-|-6--6--6--6-6----|
Eb|------------------|---------------|---------------|-----------------|

Gb|------------------|---------------|---------------|-----------------|
Db|----12---12--12---|--10--10--10---|--10--10--10---|---8--8--8-------|
Ab|-10---10---10--10-|-8---8---8---8-|-7---7---7---7-|-6--6--6--6-6----|
Eb|------------------|---------------|---------------|-----------------|

Gb|------------------|---------------|---------------|-----------------|
Db|----12---12--12---|--10--10--10---|--10--10--10---|---8--8--8-------|
Ab|-10---10---10--10-|-8---8---8---8-|-7---7---7---7-|-6--6--6--6-6----|
Eb|------------------|---------------|---------------|-----------------|

[Pre-Chorus]

Gb|--------|--------------|-------|----------------|
Db|-------7|--------------|------7|----------------|
Ab|--5-5-5-|-3-3-3-3-3-3-0|-5-5-5-|-3-3-3-3-3-3-0--|
Eb|--------|--------------|-------|----------------|

[Chorus]

Gb|-------|------------7|------9|--------------|-------|--------------|--------------------------|
Db|------5|-------------|-------|--------------|------5|--------------|---------------5-5h7p5-3-5|
Ab|-------|-5-5-5-5-5-5-|-7-7-7-|-3-3-3-3-3-3-0|-------|--------------|3-3-3-3-3-3-3-3-----------|
Eb|-3-3-3-|-------------|-------|--------------|-3-3-3-|-1-1-1-1-1-1-0|--------------------------|

Gb|-------|------------7|------9|--------------|-------|--------------|--------------------------|
Db|------5|-------------|-------|--------------|------5|--------------|---------------5-5h7p5-3-5|
Ab|-------|-5-5-5-5-5-5-|-7-7-7-|-3-3-3-3-3-3-0|-------|--------------|3-3-3-3-3-3-3-3-----------|
Eb|-3-3-3-|-------------|-------|--------------|-3-3-3-|-1-1-1-1-1-1-0|--------------------------|

[Outro]

Gb|------------------|---------------|---------------|-----------------|
Db|----12---12--12---|--10--10--10---|--10--10--10---|---8--8--8-------|
Ab|-10---10---10--10-|-8---8---8---8-|-7---7---7---7-|-6--6--6--6-6----|
Eb|------------------|---------------|---------------|-----------------|

Gb|------------------|---------------|---------------|-----------------|
Db|----12---12--12---|--10--10--10---|--10--10--10---|---8--8--8-------|
Ab|-10---10---10--10-|-8---8---8---8-|-7---7---7---7-|-6--6--6--6-6----|
Eb|------------------|---------------|---------------|-----------------|

Gb|------------------|---------------|---------------|-----------------|
Db|----12---12--12---|--10--10--10---|--10--10--10---|---8--8--8-------|
Ab|-10---10---10--10-|-8---8---8---8-|-7---7---7---7-|-6--6--6--6-6----|
Eb|------------------|---------------|---------------|-----------------|

Gb|------------------|---------------|---------------|-----------------|
Db|----12---12--12---|--10--10--10---|--10--10--10---|---8--8--8-------|
Ab|-10---10---10--10-|-8---8---8---8-|-7---7---7---7-|-6--6--6--6-6----|
Eb|------------------|---------------|---------------|-----------------|

Gb|------------------|---------------|---------------|-----------------|
Db|----12---12--12---|--10--10--10---|--10--10--10---|---8--8--8-------|
Ab|-10---10---10--10-|-8---8---8---8-|-7---7---7---7-|-6--6--6--6-6----|
Eb|------------------|---------------|---------------|-----------------|


************************************

| b  Bend
| h  Hammer-on
| p  Pull-off
| /  Slide up

************************************
Suggest correction
Creating personal tab
Creating personal tab
You can edit any tab online and save it as your Personal.

You can edit, replace or remove any tab part or add personal notes – all changes will be seen only by you.

Personal tabs can be accessed anytime from any device, even offline.
Learn more »
Give kudos to tab author, rate the tab!
1 2 3 4 5
comments
print report bad tab
guest
You may want to rate the tab now too:
select rating
Wanna post a correction for this tab? Suggest correction