Oops, an error
Loading. Please wait.

99 Revolutions Bass Tab

version 2
version 2

Whole song

  • Full studio version complete with fills.

Interactive

31 views 12 this week
no commentswrite comment
1 2 3 4 5
2 more votes to show rating
add to favorites
launch autoscroll
font size
0
reset
guitar tuner
Autoscroll
slow
fast
+/-
esc
set tempo
stop
Help us to improve Ultimate-Guitar.com Take our survey!
×
Author
Difficulty
novice
About this tab version
Full studio version complete with fills. Was this info helpful? Yes No
Intro
G|-----------------|-----------------|-----------------|-----------------|
D|-----------------|-----------------|-----------------|-----------------|
A|-3---3-3-3-3-3-3-|-----------------|-----------------|-----------------|
E|-----------------|-3---3-3-3-3-3-3-|-1---1-1-1-1-1-1-|-1-3-3-3-3-3-3-3-|

G|-----------------|------------------------|-----------------|----------------------|
D|-----------------|------------------------|-----------------|----------------------|
A|-3---3-3-3-3-3---|-10---10-10-10-10-10-10-|-8---8-8-8-8-8-8-|-8-10-10-10-10-8-7----|
E|-----------------|------------------------|-----------------|-------------------10-|

Verse
G|-----------------|-----------------|-----------------|-----------------|
D|-----------------|-----------------|-3-3-3-3-3-3-3-3-|-----------------|
A|-3---3-3-3-3-3-3-|-3-3-3-3-3-3-3-3-|-----------------|-3---3-3-3-3-3-3-|
E|-----------------|-----------------|-----------------|-----------------|

G|-----------------|-----------------|-----------------|-----------------|
D|-----------------|-5-5-5-5-5-5-5-5-|-3-3-3-3-3-3-3-3-|-5-5-5-5-5-5-5-5-|
A|-3---3-3-3-3-3-3-|-----------------|-----------------|-----------------|
E|-----------------|-----------------|-----------------|-----------------|

G|-----------------|-----------------|-----------------|-----------------|
D|-----------------|-----------------|-3-3-3-3-3-3-3-3-|-----------------|
A|-3---3-3-3-3-3-3-|-3-3-3-3-3-3-3-3-|-----------------|-3---3-3-3-3-3-3-|
E|-----------------|-----------------|-----------------|-----------------|

G|-----------------|-----------------|-----------------|-----------------|
D|-----------------|-5-5-5-5-5-5-5-5-|-3-3-3-3-3-3-3-3-|-5-5-5-5-5-5-5-5-|
A|-3---3-3-3-3-3-3-|-----------------|-----------------|-----------------|
E|-----------------|-----------------|-----------------|-----------------|

G|-----------------|
D|-5-5-5-5-5-5-5-5-|
A|-----------------|
E|-----------------|

Chorus:
G|-----------------|-----------------|-----------------|-----------------|
D|-----------------|-----------------|-----------------|-----------------|
A|-3---3-3-3-3-3-3-|-3-3-3-3-3-3-3-3-|-----------------|-----------------|
E|-----------------|-----------------|-1---1-1-1-1-1-1-|-3-3-3-3-3-3-3-3-|

G|-----------------|------------------------|-----------------|----------------------|
D|-----------------|------------------------|-----------------|----------------------|
A|-3---3-3-3-3-3---|-10---10-10-10-10-10-10-|-8---8-8-8-8-8-8-|-8-10-10-10-10-8-7----| x2
E|-----------------|------------------------|-----------------|-------------------10-|

Post-chorus riff:
G|-----------------|------------------------|-----------------|----------------------|
D|-----------------|------------------------|-----------------|----------------------|
A|-3---3-3-3-3-3---|-10---10-10-10-10-10-10-|-8---8-8-8-8-8-8-|-8-10-10-10-10-8-7----|
E|-----------------|------------------------|-----------------|-------------------10-|

Verse:
G|-----------------|-----------------|-----------------|-----------------|
D|-----------------|-----------------|-----------------|-----------------|
A|-3---3-3-3-3-3-3-|-3---3-3-3-3-3-3-|-----------------|-----------------|
E|-----------------|-----------------|-1---1-1-1-1-1-1-|-1-3-3-3-3-3-3-3-|

G|-----------------|-----------------|-----------------|-----------------|
D|-----------------|-----------------|-3-3-3-3-3-3-3-3-|-----------------|
A|-3---3-3-3-3-3-3-|-----------------|-----------------|-----------------|
E|-----------------|-3-3-3-3-3-3-3-3-|-----------------|-3-3-3-3-3-3-3-3-|

G|-----------------|-----------------|-----------------|-----------------|
D|-----------------|-5-5-5-5-5-5-5-5-|-3-3-3-3-3-3-3-3-|-5-5-5-5-5-5-5-5-|
A|-3---3-3-3-3-3-3-|-----------------|-----------------|-----------------|
E|-----------------|-----------------|-----------------|-----------------|

G|-----------------|-----------------|-----------------|-----------------|
D|-----------------|-----------------|-3-3-3-3-3-3-3-3-|-----------------|
A|-3---3-3-3-3-3-3-|-----------------|-----------------|-----------------|
E|-----------------|-3-3-3-3-3-3-3-3-|-----------------|-3-3-3-3-3-3-3-3-|

G|-----------------|
D|-----------------|
A|-----------------|
E|-3---3-3-3-3-3-3-|

Chorus:
G|-----------------|-----------------|-----------------|-----------------|
D|-----------------|-----------------|-----------------|-----------------|
A|-3---3-3-3-3-3-3-|-3-3-3-3-3-3-3-3-|-----------------|-----------------|
E|-----------------|-----------------|-1---1-1-1-1-1-1-|-1-3-3-3-3-3-3-3-|

G|-----------------|------------------------|-----------------|----------------------|
D|-----------------|------------------------|-----------------|----------------------|
A|-3---3-3-3-3-3---|-10---10-10-10-10-10-10-|-8---8-8-8-8-8-8-|-8-10-10-10-10-8-7----|
E|-----------------|------------------------|-----------------|-------------------10-|

G|-----------------|-----------------|-----------------|-----------------|
D|-----------------|-----------------|-----------------|-----------------|
A|-3---3-3-3-3-3-3-|-3-3-3-3-3-3-3-3-|-----------------|-----------------|
E|-----------------|-----------------|-1---1-1-1-1-1-1-|-1-3-3-3-3-3-3-3-|

G|-----------------|------------------------|-----------------|----------------------|
D|-----------------|------------------------|-----------------|----------------------|
A|-3---3-3-3-3-3---|-10---10-10-10-10-10-10-|-8---8-8-8-8-8-8-|-8-10-10-10-10-8-7----|
E|-----------------|------------------------|-----------------|-------------------10-|

Solo
G|-----------------|-----------------|-----------------|-----------------|
D|-----------------|-----------------|-----------------|-----------------|
A|-3---3-3-3-3-3-3-|-----------------|-----------------|-----------------|
E|-----------------|-3---3-3-3-3-3-3-|-1---1-1-1-1-1-1-|-1-3-3-3-3-3-3-3-|

G|-----------------|------------------------|-----------------|----------------------|
D|-----------------|------------------------|-----------------|----------------------|
A|-3---3-3-3-3-3---|-10---10-10-10-10-10-10-|-8---8-8-8-8-8-8-|-8-10-10-10-10-8-7----|
E|-----------------|------------------------|-----------------|-------------------10-|

Bridge
G|-----------------|-----------------|-----------------|-----------------|
D|-----------------|-----------------|-----------------|-----------------|
A|-----------------|-----------------|/8-8-8-8-8-8-8-8-|-8-8-8-8-8-8-7-5-|
E|-1---1-1-1-1-1-1-|-1-1-1-1-1-1-1-1-|-----------------|-----------------|

G|-----------------|-----------------|-----------------|-----------------|
D|-----------------|-----------------|-----------------|-----------------|
A|-3---3---3-3---3-|---3-3-3-3-2-0---|-----------------|-----------------|
E|-------------1---|---------------3-|-1---1-1-1-1-1-1-|-1-1-1-1-1-1-1-1-|

G|-----------------|-----------------|-------------------12-12-|-12----------------------|
D|-----------------|-----------------|----------12-12-12-------|----12-12-12-------12----|
A|/8-8-8-8-8-8-8-8-|-8-8-8-8-8-8-7-8-|-10-10-10----------------|-------------10-10----10-|
E|-----------------|-----------------|-------------------------|-------------------------|

G|--------------------|-----------------|
D|--------------------|-----------------|
A|-10-10-10-8-8-8-7-7-|-7-5-5-5-3-3-2-0-|
E|--------------------|-----------------|

Chorus: Rest

Chorus: Bass enters
G|-----------------|-----------------|-----------------|-----------------|
D|-----------------|-----------------|-----------------|-----------------|
A|-3---3-3-3-3-3-3-|-3-3-3-3-3-3-3-3-|-----------------|-----------------|
E|-----------------|-----------------|-1---1-1-1-1-1-1-|-1-3-3-3-3-3-3-3-|

G|-----------------|------------------------|-----------------|-------------------|
D|-----------------|------------------------|-----------------|-------------------|
A|-3---3-3-3-3-3---|-10---10-10-10-10-10-10-|-8-8-8-8-8-8-8-8-|-8-10-8-7-8-7------|
E|-----------------|------------------------|-----------------|--------------10-8-|

Chorus
G|-----------------|-----------------|-----------------|-----------------|
D|-----------------|-----------------|-----------------|-----------------|
A|-3---3-3-3-3-3-3-|-3-3-3-3-3-3-3-3-|-----------------|-----------------|
E|-----------------|-----------------|-1---1-1-1-1-1-1-|-1-3-3-3-3-3-3-3-|

G|-----------------|------------------------|-----------------|----------------------|
D|-----------------|------------------------|-----------------|----------------------|
A|-3---3-3-3-3-3---|-10---10-10-10-10-10-10-|-8---8-8-8-8-8-8-|-8-10-10-10-10-8-7----|
E|-----------------|------------------------|-----------------|-------------------10-|

G|-----------------|-----------------|-----------------|-----------------|
D|-----------------|-----------------|-----------------|-----------------|
A|-3---3-3-3-3-3-3-|-3-3-3-3-3-3-3-3-|-----------------|-----------------|
E|-----------------|-----------------|-1---1-1-1-1-1-1-|-1-3-3-3-3-3-3-3-|

G|-----------------|------------------------|-----------------|----------------------|
D|-----------------|------------------------|-----------------|----------------------|
A|-3---3-3-3-3-3---|-10---10-10-10-10-10-10-|-8---8-8-8-8-8-8-|-8-10-10-10-10-8-7----|
E|-----------------|------------------------|-----------------|-------------------10-|

Riff
G|-----------------|-----------------|-----------------|-----------------|
D|-----------------|-----------------|-----------------|-----------------|
A|-3---3-3-3-3-3-3-|-----------------|-----------------|-----------------|
E|-----------------|-3---3-3-3-3-3-3-|-1---1-1-1-1-1-1-|-1-3-3-3-3-3-3-3-|

G|-----------------|------------------------|-----------------|----------------------|
D|-----------------|------------------------|-----------------|----------------------|
A|-3---3-3-3-3-3---|-10---10-10-10-10-10-10-|-8---8-8-8-8-8-8-|-8-10-10-10-10-8-7----|
E|-----------------|------------------------|-----------------|-------------------10-|

Outro
G|-----------------|-----------------|-----------------|-----------------|
D|-----------------|-----------------|-----------------|-----------------|
A|-3---------------|-----------------|-----------------|-----------------|
E|-----------------|-3---------------|-1---------------|-3---------------|

G|-----------------|-----------------|-----------------|-----------------|
D|-----------------|-5---------------|-3---------------|-5---------------|
A|-3---------------|-----------------|-----------------|-----------------|
E|-----------------|-----------------|-----------------|-----------------|

G|-5-------5-------|-5-------5-------|-5-------5-------|-5-------5-------|
D|-----5-------5---|-----5-------5---|-----5-------5---|-----5-------5---|
A|-----------------|-----------------|-----------------|-----------------|
E|-----------------|-----------------|-----------------|-----------------|

G|-----------------|------------5555-|-5---------------|
D|-----------------|-----------------|-----------------|
A|-----------------|-----------------|-----------------|
E|-3---------------|-----------------|-----------------|
Suggest correction
Give kudos to tab author, rate the tab!
1 2 3 4 5
comments
print report bad tab
guest
You may want to rate the tab now too:
select rating
Wanna post a correction for this tab? Suggest correction