Oops, an error
Loading. Please wait.

All By Myself Ukulele

version 2
version 2

Whole song

  • Tabs are based on the album version. https://www.y... Show more

Interactive

163 views 3 this week
no commentswrite comment
1 2 3 4 5
3 more votes to show rating
add to favorites
launch autoscroll
font size
0
reset
transpose
0
reset
display chords
guitar tuner
Autoscroll
slow
fast
+/-
esc
set tempo
stop
Author
Difficulty
About this tab version
Tabs are based on the album version. https://www.youtube.com/watch?v=o8VXnvbc1c0 This is the first tab I've ever made, so please let me know if there is anything I should change. Was this info helpful? Yes No
Strumming
There is no strumming pattern for this song yet. and get +5 IQ
[Intro]
A|-4--4--4--4--5--5--5--5---|
E|--5--5--5--5--5--5--5--5--|
C|--------------------------| x2
G|--------------------------| 


[Verse 1]
A|-4--4-4--4--5--5--5--5----|
E|--5--5--5--5--5--5--5--5--|
C|--------------------------| x5
G|--------------------------| 


[Chorus 1]
A|-7--7--7--7--5--5--5--5---|
E|--5--5--5--5--5--5--5--5--|
C|--------------------------| x4
G|--------------------------| 


[Verse 2]
A|-4--4--4--4--5--5--5-5---|
E|--5--5-5--5--5--5--5--5--|
C|-------------------------|
G|-------------------------| x4


[Chorus 2]
A|-7--7--7--7--5--5--5--5--|
E|--5--5--5--5--5--5--5--5-|
C|-------------------------| x4
G|-------------------------|

Lyrics

[Verse 1]
I was alone
I was all by myself
No one was looking
I was thinking of you
Oh yeah did I mention

[Chorus 1]
I was all by myself
All by myself...
All by myself...
All by myself...

[Verse 2]
I went to your house,but no one was there
I went in your room
I was all by myself

[Chorus 2]
You and me had
Such wonderful times
When I'm all by myself,
All by myself 
Suggest correction
Give kudos to tab author, rate the tab!
1 2 3 4 5
comments
print report bad tab
guest
You may want to rate the tab now too:
select rating
Wanna post a correction for this tab? Suggest correction