Oops, an error
Loading. Please wait.

All The Time Tab

version 2
version 2
552 views 1 this week
1 commentread comment
1 2 3 4 5
worth learning
x 2
add to favorites
launch autoscroll
font size
0
reset
how to read this tab
guitar tuner
Tab Pro tools
  • play this tab
  • loop segment
  • change instrument
  • show fretboard
  • metronome
Autoscroll
slow
fast
+/-
esc
set tempo
stop
Green Day, All The Time.
 Tabbed by Sebastian Lapidus, sebaslap@yahoo.com.
  
Intro:

|-----------|
|-----------|
|-9-9-7-7---|
|-9-9-7-7-7-|
|-7-7-5-5-7-|
|---------5-|

Verse:

|---------------------------------|
|---------------------------------|
|---------------------7-7-7-7-7-7-|
|-7-7-7-7-7-5-5-5-5-5-7-7-7-7-7-7-|
|-7-7-7-7-7-5-5-5-5-5-5-5-5-5-5-5-|
|-5-5-5-5-5-3-3-3-3-3-------------|

Bridge:

|-----------------|
|-----------------|
|-----7-7-----5-5-|
|-7-7-7-7-5-5-5-5-|
|-7-7-5-5-5-5-3-3-|
|-5-5-----3-3-----|

That's all. When The bridge ends go back to verse and after play intro until the end. I cannot remember how many times is played each part. 
:: Ultimate Guitar Archive :: 
http://www.ultimate-guitar.com 



comments
We did not receive enough feedback on this tab! Please rate:
print report bad tab
1 2 3 4 5
1 comment total.
0 reply
FAT_HEAD wrote on August 12 2002, 12:00 am

/=Slide
It's basically right, except you slide from a G#5 to an A5

Verse:
|-------------------------|
|-------------------------|
|------------------7-7-7-7|
|6/7-7-7-7-5-5-5-5-7-7-7-7|
|6/7-7-7-7-5-5-5-5-5-5-5-5|
|4/5-5-5-5-3-3-3-3--------|

I want to post or [tab]
guest
You may want to rate the tab now too:
select rating
Please do not post tabs as comments. Select "correction" instead!