Oops, an error
Loading. Please wait.

Amanda Tab

version 2
version 2

Whole song

Interactive

3,185 views 21 this week
no commentswrite comment
1 2 3 4 5
2 more votes to show rating
add to favorites
launch autoscroll
font size
0
reset
how to read this tab
guitar tuner
Autoscroll
slow
fast
+/-
esc
set tempo
stop
Help us to improve Ultimate-Guitar.com Take our survey!
×
Author
Difficulty
intermediate
Green Day
Amanda
¡Tré!
Standard
I dont take credit for the whole tab some parts are from different tabs in this site


Verse 1
   
e|-------------------|
B|-------------------|
G|----3-----6--------|
D|-4--3--6--6--------|    
A|-4--1--6--4--------|
E|-2-----4-----------|

Chorus

Gtr 1

e|----------------------------|
B|----------------------------|
G|-----------4-------7--------|
D|-4---------4--(8x)-7-(hold)-|    
A|-4-(16x)---2-------5--------|
E|-2--------------------------|

Amanda i couldn't be your man.

e|---------------------------------------|
B|---------------------------------------|
G|----------6-------------------6--------|
D|-4--------6--(8x)---4---------6--(8x)--|    
A|-4-(8x)---4---------4--(8x)---4--------|
E|-2------------------2------------------|

Gtr 2

e|-2---------------------------------------|
B|-2---------5---------3---------2---------|
G|-3--(8x)---3--(8x)---3--(8x)---3--(hold)-|
D|-4---------4---------3---------3---------|    
A|-----------------------------------------|
E|-----------------------------------------|

Verse 2 ,Chorus 2
(the same as verse 1 and Chorus 1)

Bridge

e|---------------------------------|
B|---------------------------------|
G|-----------4--4------------------|   
D|-4--4-2--2-4--4-2-2---(4x)---4---|    
A|-4--4-2--2-2--2-2-2----------4---|
E|-2--2-0--0------0-0----------2---|

Gtr 1

I not playing with mind...

e|--------------------------------------------------|
B|--------------------------------------------------|
G|--------------------------------------------------|   
D|-8-6-9-9--9-11-11-11-11-4--8-6-9------11-------11-|    
A|-8-6-9-9--9-11-11-11-11-4--8-6-9-(8x)-11-(8x)--11-|
E|-6-4-7-7--7-9--9--9--9--2--6-4-7------9--------9--|

Gtr 2

e|------------------------------------------------------------------------|
B|-11--11--11--11--11--11-11-9--1212--12--12--12--12--12--14--14----------|
G|---11--11--11--11--11---11-11-111111--11--11--11--11--11--11------(2x)--|
D|------------------------------------------------------------------------| 
A|------------------------------------------------------------------------|
E|------------------------------------------------------------------------|

Solo

Gtr 1
(same as the verses)

Gtr 2

e|--------2-2---2-2-9--9--9------------2-2-2---2--------------2-2---2-2-------------------|
B|--------2-2h4-2-2-11-11-11-----------2-2-2h4-2--------------2-2h4-2-2-------------------|
G|-----3-----------------------------------------4-3-3p1----3------------11-11-11---------|
D|---4----------------------------------------------------4-------------------------------| 
A|------------------------------------------------------------------------9--9--9---------|
E|----------------------------14\\\\1---------------------------------------------14\\\\1-|

e|---------------------------------------------6-6-6-6-6-7-7-7-7-9--9--9--9--9--9---------|
B|---------------------------------------------7-7-7-7-7-9-9-9-9-11-11-11-11-11-11--------|
G|-6-6--8\6--6\4--4\3--3-3---3\6--6-6~----------------------------------------------------|
D|----------------------------------------------------------------------------------------| 
A|-4-4--6\4--4\2--2\1--1-1---1\4--4-4~----------------------------------------------------|
E|-------------------------------------14\\\\1--------------------------------------------|

e|-11-11-9--9--7-7-6-6-6-----------2-2---2---2----2-2---2---2----2-2---2---2-2------------|
B|-12-12-11-11-9-9-7-7-7--6b7-4-2--2-2h4-2-2-2----2-2h4-2-2-2----2-2h4-2-2-2-2------------|
G|-----------------------------------------3--------------3--------------3----------------|
D|-----------------------------------------------------------------------------3b4--------| 
A|---------------------------------------------------------------------------------4-1----|
E|-------------------------------------------------------------------------------------2--|

Chorus 3
(same as the other choruses)

Outro

e|---------------------------------|
B|---------------------------------|
G|-----------4--4------------------|   
D|-4--4-2--2-4--4-2-2---(4x)---4---|    
A|-4--4-2--2-2--2-2-2----------4---|
E|-2--2-0--0------0-0----------2---|
Suggest correction
Give kudos to tab author, rate the tab!
1 2 3 4 5
comments
print report bad tab
guest
You may want to rate the tab now too:
select rating
Wanna post a correction for this tab? Suggest correction