Oops, an error
Loading. Please wait.

American Idiot Bass Tab

version 1
version 1

Whole song

Interactive

166,681 views 288 this week
16 commentsread comments
1 2 3 4 5
accurate
x 43
add to favorites
launch autoscroll
font size
0
reset
guitar tuner
Autoscroll
slow
fast
+/-
esc
set tempo
stop
Help us to improve Ultimate-Guitar.com Take our survey!
×
Contributor
tukd 73
-----------------------------------------------------------------
American Idiot - Green Day
-----------------------------------------------------------------

Tabbed By :John Ivashkevich
e-mail:

Tuning: standard tuning

Main Riff (Intro/Verse)
G|---------------------------------------------------------------|
D|---------------------------------------------------------------|
A|-------4-4-----4-----------------------------------------------|
E|-4-4-4-----2-2---4-4-4-----------------------------------------|

Chorus Riff
G|---------------------------------------------------------------------------------------------|
D|---------------------------------------------------------------------------------------------|
A|-4-4-4-4-4-4-4-4-4-4-4-4-4-4-----------------------------------------------------------------|
E|----------------------------4-4-4-4-4-4-4-4-4-4-4-4-4-4-2-2-2-2-2-2-2-2-2-2-2-2-2-2-2-2-2-2-2|

G|---------------------------|
D|---------------------------|
A|4-4-4-4--------------------|
E|-------4-4-4-4-4-4-4-4-4-4-|


G|------------------------------------------------------------------------------------s------------------|
D|------------------------------------------------------------------------------------t------------------|
A|-4-4-4-4-4-4-4-4-4-4-4-4-4-4--------------------------------------------------------o------------------|
E|----------------------------4-4-4-4-4-4-4-4-4-4-4-4-4-4-2-2-2-2-2-2-2-2-2-2-2-2-2-2-p------------------|

Bridge (guitar solo)
G|---------------------------------------------------------------------------------------------------------|
D|---------------------------------------------------------------------------------------------------------|
A|444444444444444444---------------------------------------2-2-2-2-2-2-2-2-2-2-2-2-2-2-2-2-2---------------|
E|------------------4-4-4-4-4-4-4-4-4-4-4-4-4-4-4-4-4-4-4-4---------------------------------4-4-4-4-4-4-4-4|

G|----------------------------------------------------------------------------------------------------|
D|----------------------------------------------------------------------------------------------------|
A|444444444444444444-------------------------------------------------------------4-4-4----------------|
E|------------------4-4-4-4-4-4-4-4-4-4-4-4-4-4-4-4-4-4-4-4-2-2-2-2-2-2-2-2-2-2-2-----4-4-4-4-4-4-----|


The Order:

Guitar Intro

Main Riff x3
  x  Break (drums solo) (vocal part)
  4  Main Riff

Chorus
  x  Break (drums solo) (vocal part)
  4  Main Riff

Chorus
  x  Break (drums solo)
  4  Main Riff

Guitar Solo

Bridge (here you play just the C# which is 4 fret on A string)

Chorus

Outro (here you play the main riff + this: G|------------|
                                           D|------------|
                                           A|-444--------|
                                           E|----4-------|)


Just listen to the song. I'm not sure about many things but i'm sure there will be more 
versions then this one soon..


| / slide up
| \ slide down
| h hammer-on
| p pull-off
| ~ vibrato
| + harmonic
| x Mute note
comments
print report bad tab
16 comments total. Showing first comments.
+1 reply
herrly 1,049 wrote on November 6 2004, 12:00 am

this is the best american idiot bass tab so far, keep up the good work man, i was gonna enter my tab to UG but this 1 is pretty much the same.

+2 reply
Earth_Rave 189 wrote on November 13 2004, 12:00 am

Your chorus and bridge are wrong

0 reply
shirebassist05 11 wrote on March 26 2005, 12:00 am

yep, and tour verse ios wrong

I want to post or [tab]
guest
You may want to rate the tab now too:
select rating
Please do not post tabs as comments. Select "correction" instead!