Oops, an error
Loading. Please wait.
We have an official Amy tab made by UG professional guitarists. Check out the tab »
×
28,376 views 120 this week
3 commentsread comments
1 2 3 4 5
x 34
add to favorites
×
Save as Personal and add changes to this tab that will be seen only by you. Learn more ›
×
You can save this tab as Personal to edit and correct it or add notes. All changes will be seen only by you. Learn more »
launch autoscroll
font size
0
reset
how to read this tab
guitar tuner
edit
Autoscroll
slow
fast
+/-
esc
set tempo
stop
Author
Difficulty
intermediate
-----------------------------------------------------------------------------
                              Amy - Green Day
-----------------------------------------------------------------------------
Tabbed by: ehbacon & Jared Brustman
E-mail: ehbacon@att.net

Tuning: Standard
Lyrics by: www.azlyrics.com


[Intro/main riff]

e|-------------------------------------------------------|
B|----7----7------2-2----2-------7-----7------2-2----2---|
G|----8----8------3-3----3-------8-----8------3-3----3---|
D|-------------------------------------------------------|
A|-6-----6----1-1------1---1--6----6-6----1-1------1---1-|
E|-------------------------------------------------------|


[Verse] Is your heart singing out of tune...

e|--------------------------------------------------------------------------|
B|----11----11----7-7---7-------------------11-11---11------11----11----2-2-|
G|----11----11----8-8---8-----8-----8-------11-11---11------11----11----3-3-|
D|----------------------------9-----9---------------------------------------|
A|-9------9-----6-6-6---6----------------9---9--9----9---9------9-----1-1-1-|
E|-------------------------7----7-7----7------------------------------------|

e|--------------------------------------------------------------------------|
B|--2------------------------------------11----11----7-7---7----------------|
G|--3-----8-----8------10-10----10-------11----11----8-8---8-----8-----8----|
D|--------9-----9------11-11----11-------------------------------9-----9----|
A|--1---------------------------------9------9-----6-6-6---6----------------|
E|-----7----7-7----7-9--------9----9--------------------------7----7-7----7-|

e|-------------------------------------------------------------------|
B|---11-11---11------11----11----2-2--2------------------------------|
G|---11-11---11------11----11----3-3--3-----8-----8------10-10----10-|
D|------------------------------------------9-----9------11-11----11-|
A|9---9--9----9---9------9-----1-1-1--1------------------------------|
E|---------------------------------------7----7-7----7-9--------9----|


[Chorus] Amy don't you go...

e|--------------------------------------------------------------------------|
B|----7----7--7-7----7-----11----11--11-11----11-----7----7------2-2----2---|
G|----8----8--8-8----8-----11----11--11-11----11-----8----8------3-3----3---|
D|--------------------------------------------------------------------------|
A|-6-----6----6----6----9------9------9-----9-----6-----6----1-1------1---1-|
E|--------------------------------------------------------------------------|

e|----------------------------------------------------|
B|------------------11-11----11-------------------11--|
G|----8------10-----11-11----11-----8------10-----11--|
D|----9------11---------------------9------11---------|
A|----------------9--9-----9--------------------9--9--|
E|-7-----7-9----9----------------7-----7-9----9-------|


[Bridge] Amy please don't go...

e|-9-------9------9-------------------------------------------------------|
B|-9-------9------9--------------------------9-------9------9-------------|
G|-9---9---9--9-9-9-----8----8--7----7---7---9---9---9--9-9-9-----8----8--|
D|-9-------9------------9----9--9----9---9---9-------9------------9----9--|
A|-7-------7---------------------------------7-------7--------------------|
E|-------------------7-----7----7--7---7-----------------------7-----7----|

e|---------------|
B|---------------|
G|---10----10-10-|
D|---11----11-11-|
A|---------------|
E|-9-----9-------|


[Outro]

e|---------------|
B|-11------------|
G|-11-(let-ring)-|
D|-11------------|
A|--9------------|
E|---------------|


Order:
Intro
Verse
Chorus
Main riff
Verse
Chorus
Bridge
Verse
Chorus (the part while Billie is singing "do you want to be a friend of mine is played 3 
times instead of 2)
Main riff
Outro




             Lyrics:

Is your heart singing out of tune?
Are your eyes just singing the blues?
Dirty records from another time
Some blood stains on your shoes

No one really knows about your soul
And I barely really know your name
Burning rhythms and posting lies
And a bunch of fools drown in shame

Amy don't you go
I want you around
Singin' woah please don't go
Do you wanna be a friend of mine?
Do you wanna be a friend of mine?

Did you tattoo a lucky charm
To keep you out of harms way?
Warding off all evil signs
But never really kept you safe

Now you're too young for the golden age
'Cause the record bin's been replaced
27 gone without a trace
And you walked away from your drink

Amy don't you go
I want you around
Singin' woah please don't go
Do you wanna be a friend of mine?
Do you wanna be a friend of...

Amy please don't go!
Amy please don't go!

Is your heart singing out of tune
Are your eyes just singing the blues?
Dirty records from another time
Some blood stains on your shoes

May I have this last dance
By chance if we should meet?
Can you write me a lullaby?
So we can sing you to sleep

Amy don't you go
I want you around
Singin' woah please don't go
Do you wanna be a friend of mine?
Do you wanna be a friend of mine?
Do you wanna be a friend of mine?

            
            
Suggest correction
Creating personal tab
Creating personal tab
You can edit any tab online and save it as your Personal.

You can edit, replace or remove any tab part or add personal notes – all changes will be seen only by you.

Personal tabs can be accessed anytime from any device, even offline.
Learn more »
comments
print report bad tab
3 comments total.
+1 reply
eamoisey 10 Feb 27, 2014 09:50 AM

hi, I think the second time the riff is played in the verse should the second group of notes plucked should be 1 1-3-2 1-3-2 1-3-2 instead of 6-8-7's when I played along with the song the 6-8-7's harmonised beautifully but didn't sound exact. If I'm wrong I'm sorry!! love the tab though it's perfect other than that one little thing! thank you so much!!

e|--------------------------------------------------------------------------|
B|----11----11----7-7---7-------------------11-11---11------11----11----2-2-|
G|----11----11----8-8---8-----8-----8-------11-11---11------11----11----3-3-|
D|----------------------------9-----9---------------------------------------|
A|-9------9-----6-6-6---6----------------9---9--9----9---9------9-----1-1-1-|
E|-------------------------7----7-7----7------------------------------------|

e|--------------------------------------------------------------------------|
B|--2------------------------------------11----11----7-7---7----------------|
G|--3-----8-----8------10-10----10-------11----11----8-8---8-----8-----8----|
D|--------9-----9------11-11----11-------------------------------9-----9----|
A|--1---------------------------------9------9-----6-6-6---6----------------|
E|-----7----7-7----7-9--------9----9--------------------------7----7-7----7-|

guest
You may want to rate the tab now too:
select rating
Wanna post a correction for this tab? Suggest correction