Oops, an error
Loading. Please wait.

Android Bass Tab

version 2
version 2

Whole song

Interactive

16 views 1 this week
no commentswrite comment
1 2 3 4 5
3 more votes to show rating
add to favorites
launch autoscroll
font size
0
reset
guitar tuner
Autoscroll
slow
fast
+/-
esc
set tempo
stop
Help us to improve Ultimate-Guitar.com Take our survey!
×
Author
Difficulty
Tuning
novice
D# G# C# F# A# D#
Intro
Gb|-----------------|-----------------|-----------------|-----------------|
Db|-----------------|-----------------|-----------------|-------------8h9-|
Ab|-----------------|-----------------|-----------------|-----------------|
Eb|-----------------|-----------------|-----------------|-----------------|

Gb|-----------------|-----------------|-----------------|-----------------|
Db|-----------------|-----------------|-----------------|-----------------|
Ab|-----------------|-----------------|-----------------|-----------------|
Eb|-7---5-0-0---0-0-|-5-5-5-2-2---2-0-|-7---5-0-0---0-0-|-5-5-5-2-2---2-0-|

Verse x2
Gb|-----------------|-----------------|-----------------|-----------------|
Db|-----------------|-----------------|-----------------|-----------------|
Ab|-2-2-2-2-2-2-2-2-|-2-2-2-2-2-2-2-2-|-2-2-2-2-2-2-2-2-|-2-2-2-2-2-2-2-2-|
Eb|-----------------|-----------------|-----------------|-----------------|

Gb|-----------------|-----------------|
Db|-----------------|-----------------|
Ab|-7---0-7-7---0-7-|-7---0-7-7-------| 
Eb|-----------------|-------------0-0-|

Chorus
Gb|-----------------|-----------------|-----------------|-----------------|
Db|---------4-------|-----------------|-----------------|-----------------|
Ab|-2---2-2---2-----|-----------------|-----------------|-------------2h4-| x4
Eb|-------------0-0-|---0-0-0-0-0-0-0-|-5---5---5-5-5-2-|---2-2-2-2h4-----|

Gb|-----------------|-----------------|
Db|-----------------|-------------8h9-|
Ab|-----------------|-----------------|
Eb|-5---5---5---5---|-----------------|

Gb|-----------------|-----------------|-----------------|-----------------|
Db|-----------------|-----------------|-----------------|-----------------|
Ab|-----------------|-----------------|-----------------|-----------------|
Eb|-7---5-0-0---0-0-|-5-5-5-2-2---2-0-|-7---5-0-0---0-0-|-5-5-5-2-2---2-0-|

Verse x2
Gb|-----------------|-----------------|-----------------|-----------------|
Db|-----------------|-----------------|-----------------|-----------------|
Ab|-2-2-2-2-2-2-2-2-|-2-2-2-2-2-2-2-2-|-2-2-2-2-2-2-2-2-|-2-2-2-2-2-2-2-2-|
Eb|-----------------|-----------------|-----------------|-----------------|

Gb|-----------------|-----------------|
Db|-----------------|-----------------|
Ab|-7---0-7-7---0-7-|-7---0-7-7-------| 
Eb|-----------------|-------------0-0-|

Chorus
Gb|-----------------|-----------------|-----------------|-----------------|
Db|---------4-------|-----------------|-----------------|-----------------|
Ab|-2---2-2---2-----|-----------------|-----------------|-------------2h4-| x4
Eb|-------------0-0-|---0-0-0-0-0-0-0-|-5---5---5-5-5-2-|---2-2-2-2h4-----|

Gb|-----------------|-----------------|
Db|-----------------|-----------------|
Ab|-----------------|-----------------|
Eb|-5---5---5---5---|-7-7-7-7-7-7-7-5-|

Re-intro
Gb|-----------------|-----------------|-----------------|-----------------|
Db|-----------------|-----------------|-----------------|-----------------|
Ab|-----------------|-----------------|-----------------|-----------------|
Eb|-7---5-0-0---0-0-|-5-5-5-2-2---2-0-|-7---5-0-0---0-0-|-5-5-5-2-2---2-0-|

Bridge
Gb|-----------------|-----------------|-----------------|-----------------|
Db|-----------------|-----------------|-----------------|-----------------|
Ab|-2---------------|-----------------|-0---------------|-----------------|
Eb|-----------------|-----------------|-----------------|-----------------|

Gb|-----------------|-----------------|-----------------|-----------------|
Db|-6---------------|-----------------|-----------------|-----------------|
Ab|-----------------|-----------------|-9---0-9-9---0-9-|-9---0-9-9---0---|
Eb|-----------------|-----------------|-----------------|---------------0-|

Gb|-----------------|-----------------|-----------------|-----------------|
Db|-----------------|-----------------|-----------------|-----------------|
Ab|-2---------------|-----------------|-0---------------|-----------------|
Eb|-----------------|-----------------|-----------------|-----------------|

Gb|-----------------|-----------------|-----------------|-----------------|
Db|-6---------------|-----------------|-----------------|-----------------|
Ab|-----------------|-----------------|-9---0-9-9---0-9-|-9---0-9-9---0---|
Eb|-----------------|-----------------|-----------------|---------------0-|

Gb|-----------------|-----------------|
Db|-----------------|-----------------|
Ab|-----------------|-----------------|
Eb|-5---5---5---5---|-7-7-7-7-7-7-7-7-|

Re-intro
Gb|-----------------|-----------------|-----------------|-----------------|
Db|-----------------|-----------------|-----------------|-----------------|
Ab|-----------------|-----------------|-----------------|-----------------| x2
Eb|-7---5-0-0---0-0-|-5-5-5-2-2---2-0-|-7---5-0-0---0-0-|-5-5-5-2-2---2-0-|

Bridge
Gb|-----------------|-----------------|-----------------|-----------------|
Db|-----------------|-----------------|-----------------|-----------------|
Ab|-2---------------|-----------------|-----------------|-----------------|
Eb|-----------------|-----------------|-----------------|-----------------|

Gb|-----------------|-----------------|-----------------|-----------------|
Db|-----------------|-----------------|-----------------|-----------------|
Ab|-----------------|-----------------|-----------------|-2-2-2-2-2-2-2-2-|
Eb|-----------------|-----------------|-----------------|-----------------|

Gb|---------4-------|-----------------|---------2-------|-----------------|
Db|-4---------------|-----------------|-2---------------|-----------2-----|
Ab|-----------------|-0-0-0-0-0-0-0-0-|-----------------|---------2---2---|
Eb|-----------------|-----------------|-----------------|-4-4-4-4-------4-|

Gb|-----------------|-----------------|-----------------|-----------------|
Db|-----------------|-----------2-----|-----------------|-----------------|
Ab|-----------------|---------2---2---|-----------------|-----------------|
Eb|-4-4-4-4-4-4-4-4-|-4-4-4-4-------4-|-4-4-4-4-4-4-4-4-|-2-2-2-2-2-2-2-2-|

Gb|-----------------|-----------0-----|-----------------|-----------------|
Db|-----------------|---------2---2---|-----------------|-----------------|
Ab|-----------------|-2-2-2-2-------2-|-2-2-2-2-2-2-2-2-|-----------------|
Eb|-2-2-2-2-2-2-2-2-|-----------------|-----------------|-5---5-5-5-5-5-5-|

Gb|-----------------|-----------------|-----------------|-----------------|
Db|-----------------|-----------------|-----------------|-----------------|
Ab|-----------------|-----------------|-----------------|-----------------|
Eb|-5---5-5-5-5-5-5-|-4---4-4-4-4-4-4-|-4---4-4-4-4-4-4-|-2---2-2-2-2-2-2-|

Gb|-----------------|-----------------|-----------------|-----------------|
Db|-----------------|-----------------|-----------------|-----------------|
Ab|-----------------|-2---2-2-2-2-2-2-|-2---2-2-2-2-2-2-|-----------------|
Eb|-2---2-2-2-2-2-2-|-----------------|-----------------|-5---5-5-5-5-5-5-|

Gb|-----------------|-----------------|-----------------|
Db|-----------------|-----------------|-----------------|
Ab|-----------------|-----------------|-----------------|
Eb|-5---5-5-5-5-5-5-|-4---4-4-4-4-4-4-|-4---------------|

Gb|-----------------|-----------------|-----------------|-----------------|
Db|-----------------|-----------------|-----------------|-----------------|
Ab|-----------------|-----------------|-----------------|-----------------|
Eb|-2---0-2-2---0-2-|-2---0-2-2---0-2-|-5---5---5---5---|-----------------|

Outro
Gb|-----------------|-----------------|-----------------|-----------------|
Db|-----------------|-----------------|-----------------|-----------------|
Ab|-----------------|-----------------|-----------------|-----------------|
Eb|-7---5-0-0---0-0-|-5-5-5-2-2---2-0-|-7---5-0-0---0-0-|-5-5-5-2-2---2-0-|

Gb|-----------------|-----------------|-----------------|-----------------|
Db|-----------------|-----------------|-----------------|-----------------|
Ab|-----------------|-----------------|-----------------|-----------------|
Eb|-7---5-0-0---0-0-|-5-5-5-2-2---2-0-|-7---5-0-0---0-0-|-5-5-5-2-2---2-0-|

Gb|-----------------|
Db|-----------------|
Ab|-----------------|
Eb|-7---------------|
Suggest correction
Give kudos to tab author, rate the tab!
1 2 3 4 5
comments
print report bad tab
guest
You may want to rate the tab now too:
select rating
Wanna post a correction for this tab? Suggest correction