Oops, an error
Loading. Please wait.

Angel Blue Tab

version 1
version 1

Solo

Whole song

Interactive

2,444 views 3 this week
1 commentread comment
1 2 3 4 5
excellent!
x 5
add to favorites
launch autoscroll
font size
0
reset
how to read this tab
guitar tuner
Autoscroll
slow
fast
+/-
esc
set tempo
stop
Help us to improve Ultimate-Guitar.com Take our survey!
×
Difficulty
intermediate
Alright This may not be right, but here's what I have: (Note: At 88888 pick the string 
fast six times!)


e------------------------------------------------------------------------------|
B--12--12--12--12--12-----12-12----------12--12--12--12--12----16-16-16-14-12--|
G----11--11--11------11--9--9--9-8-8-8-8-8-11--11--11------11------------------|
D------------------------------------------------------------------------------|
A------------------------------------------------------------------------------|
E------------------------------------------------------------------------------|

So try it out, it should be right. Well, good luck!
Suggest correction
comments
print report bad tab
1 comment total.
0 reply
30guitaperson 10 wrote on March 9 2013, 12:34 pm

e------------------------------------------------------------------11-11-11-9-----|
B-12--12--12--12--12-----12--12-----12---12---12--12--12--12--12--------------12~-|
G---11--11--11--11--11-9---9---9--8----8---8----11--11--11--11--11----------------|
D---------------------------------------------------------------------------------|
A---------------------------------------------------------------------------------|
E---------------------------------------------------------------------------------|

guest
You may want to rate the tab now too:
select rating
Wanna post a correction for this tab? Suggest correction