Oops, an error
Loading. Please wait.

At The Library Tab

version 4
version 4

Whole song

Interactive

27,151 views 72 this week
17 commentsread comments
1 2 3 4 5
x 22
add to favorites
launch autoscroll
font size
0
reset
how to read this tab
guitar tuner
×
Best way to learn
"At The Library"
Autoscroll
slow
fast
+/-
esc
set tempo
stop
Tuning: Eadgbe

[Intro]
e|-----------------------------------------------|
B|-----------------------------------------------|
G|------------------------------------4444444----|
D|444---555---444---555---444---555---4444444----|
A|555-0-333-0-555-0-333-0-555-0-333-0-2222222----|
E|--------------------------------------------x2-|

e|-----------------------------------------7---5---7---------------5-----|
B|--------------------------------------7----7---7--------------7-----7-|
G|--------------0------5--------0---------7----------7---5----5---------|
D|------0-----4-------5-------7-----------------------------5-----------|
A|----5---2-2-----3-3-----5-5-------------------------------------------|
E|3-3--------------------------x4---------------------------------------|

[Verse]
e|------------------------------------|
B|------------------------------------|
G|-------------0-------0-------0------|
D|-----0-----4-------5-------7--------|
A|---5---2-2-----3-3-----5-5----------|
E|33------------------------------x8--|

[Chorus]
e|--------------------------------------------------|
B|--------------------------------------------------|
G|------7777--------7777--------7777--5555--7777----|
D|2222--7777--2222--7777--2222--7777--5555--7777----|
A|2222--5555--2222--5555--2222--5555--3333--5555----|
E|0000--------0000--------0000----------------------|

[Bridge]
E|-----------3--|--------------------3|
B|-3-3-------3--|-3--3--3----3--3-3---|
G|-0-0-0-0---3--|-0--0--0----0--0-0---|
D|-0-0-0-0------|-0--0--0----0--0-0---|
A|-x-x-x-x------|-x--x--x----x--x-x---|
E|-3-3-3-3------|-3--3--3----3--3-3---|

E|-7-8-8-10-10--10--10-|10-8-8--7-7-------------------|
B|-8-8-8-8--8----8--8--|8--8-8--8-8-------------------|
G|-7-7-7-7--7----7--7--|7--7-7--7-7------7\--14-------|
D|-0-0-0-0--0----0--0--|0--0-0--0-0--------------0--0-|
A|---------------------|------0---0-------------------|
E|---------------------|------------------------------|

E|-8-8---7-7--8-|-10-10---8--7----|3-3-3-3-3-3--|
B|-8-8---8-8--8-|-8--8----8--8----|3-3-3-3-3-3--|
G|-7-7---7-7--7-|-7--7----7--7----|0-0-0-0-0-0--|
D|-0-0---0-0--0-|-0--0----0--0----|0-0-0-0-0-0--|
A|--------------|-----------------|x-x-x-x-x-x--|
E|--------------|-----------------|3-3-3-3-3-3--|

e|----------33------------33-|-----------------------------------------|
B|---3------33------3-----33-|---------------------------77777777777---|
G|---------------------------|---------------------------77777777777---|
D|----x-------x------x-------|-555555555555555555555555--55555555555---|
A|----x-------x------x-------|-555555555555555555555555----------------|
E|3-3---3-3-----3-3----33----|-333333333333333333333333----------------|

[Ending]
e|------------------------------------7---5------------|
B|----------------------------------7---7-5--0-0-------|
G|-------------------------------5-----------0-0-------|
D|44---55---44---55---44---55-----------------------5--|
A|55-0-33-0-55-0-33-0-55-0-33-----------------------5--|
E|------------------------------------------------0-3--|


************************************

| x  Dead note
| \  Slide down

************************************
Suggest correction
comments
print report bad tab
17 comments total. Showing first comments.
0 reply
Nick-182 10 Jun 03, 2005 08:00 PM

fair enough

0 reply
GDBrandskater 10 Aug 14, 2005 08:00 PM

Its awsome. I love you, haha.

+1 reply
green_day9 325 Oct 24, 2005 09:32 AM

hahaha........... ur gay......... good tab but wot about the backing chords?

guest
You may want to rate the tab now too:
select rating
Wanna post a correction for this tab? Suggest correction