Oops, an error
Loading. Please wait.

Babs Uvula Who Tab

version 1
version 1

Whole song

Interactive

9,315 views 15 this week
4 commentsread comments
1 2 3 4 5
accurate
x 12
add to favorites
launch autoscroll
font size
0
reset
how to read this tab
guitar tuner
Autoscroll
slow
fast
+/-
esc
set tempo
stop
Help us to improve Ultimate-Guitar.com Take our survey!
×
Green Day - Bab's Uvula Who?.
Tabbed by Nathan Sessions - rubberdude69@hotmail.com.
  
e|-------------------------------------------------|
B|-------------------------------------------------|
G|-------------------------------------------------|
D|-8--------6----------3---------------------------|
A|-8--------6----------3---------------------------|
E|-6--------4----------1---------------------------|

e|------------------------------------------|
B|------------------------------------------|
G|-------------------------------------888--|repeat 6x
D|x8-8x------x8-8x------x8-8x------6-6-888--|
A|x8-8x------x8-8x------x8-8x------6-6-666--|
E|x6-6x------x6-6x------x6-6x------4-4------|

e|-------------------------------------------------|
B|-------------------------------------------------|
G|----------------888------------------------------|
D|-8-8--8-8---6-6-888------------------------------|
A|-8-8--8-8---6-6-666------------------------------|
E|-6-6--6-6---4-4----------------------------------|


e|------------------------------------------|
B|------------------------------------------|
G|-------------------------------------888--|
D|-8-8--------8-8--------8-8-------6-6-888--|
A|-8-8--------8-8--------8-8-------6-6-666--|
E|-6-6--------6-6--------6-6-------4-4------|

Thats about it. any questions/comments/suggestions email me - rubberdude69@hotmail.com  Enjoy 
:: Ultimate Guitar Archive :: 
http://www.ultimate-guitar.com 

Suggest correction
What's this?
You can suggest a correction to this tab. Community and Mods will review your correction and vote to approve or reject it.
comments
print report bad tab
4 comments total. Showing first comments.
+1 reply
feesk8ordie 1,467 wrote on April 1 2005, 12:00 am

very good

+1 reply
Sully¿? 14 wrote on January 28 2006, 04:49 pm

nice

0 reply
TheNewWorldMan 114 wrote on June 16 2009, 11:05 pm

E-------------------------------
B-------------------------------
G----------------------9-9------
D--9-9--9-9--9-9--7-7--9-9------
A--9-9--9-9--9-9--7-7--7-7------
E--7-7--7-7--7-7--5-5-----------
I think it sounds better like that

guest
You may want to rate the tab now too:
select rating
Please do not post tabs as comments. Select "correction" instead!