Oops, an error
Loading. Please wait.
We have an official Bang Bang tab made by UG professional guitarists. Check out the tab »
×
15,244 views 84 this week
1 commentread comment
1 2 3 4 5
x 13
add to favorites
×
Save as Personal and add changes to this tab that will be seen only by you. Learn more ›
×
You can save this tab as Personal to edit and correct it or add notes. All changes will be seen only by you. Learn more »
launch autoscroll
font size
0
reset
guitar tuner
backing track
0:00
0:00
edit
Autoscroll
slow
fast
+/-
esc
set tempo
stop
Author
[Intro]

G|-----------------------------------------------------------------------------------|
D|-----------------------------------------------------------------------------------|
A|-------------8-8-8-8-8-5-5-5-5-5-5-5-5-5-5-----------8-8-8-8-8-3-3-3-3-3-7-7-7-7---| x4
E|-5--5-5-5-5--------------------------------5-5-5-5-5-------------------------------|


[Verse]

G|----------------------|
D|----------------------|
A|--------5-5-5-5-------| x3
E|-0-2-3----------5-----|

G|---------------------------------------------|
D|---------------------------------------------|
A|-5-5-5-5-5-----------5-5-5-5-5---------------|
E|-----------3-3-3-3-3-----------5-5-5-5-5-----|

G|----------------------|
D|----------------------|
A|--------5-5-5-5-------|
E|-0-2-3----------5-----|

G|---------------------------------------------|
D|---------------------------------------------|
A|-5-5-5-5-5-----------5-5-5-5-5---------------|
E|-----------3-3-3-3-3-----------5-5-5-5-5-----|


[Chorus]

G|---------------------------------------------------------------------------|
D|---------------------------------------------------------------------------|
A|---8-8-8-8-8-5-5-5-5-5-5-5-5-5-5-----------3-3-3-3-3-8-8-8-8-8-5-5-5-5-5---|
E|-5-------------------------------5-5-5-5-5---------------------------------|

G|---------------------------------------------------------------------------|
D|---------------------------------------------------------------------------|
A|---8-8-8-8-8-5-5-5-5-5-5-5-5-5-5-----------3-3-3-3-3-8-8-8-8-8-5-----------|
E|-5-------------------------------5-5-5-5-5---------------------------------|

G|---------------------------------------------------------------------------|
D|---------------------------------------------------------------------------|
A|-----------8-8-8-8-8-5-5-5-5-5-5-5-5-5-5-----------8-8-8-8-8-3-3-3-3-3-7-7-|
E|-5-5-5-5-5-------------------------------5-5-5-5-5-------------------------|


[Verse]

G|----------------------|
D|----------------------|
A|--------5-5-5-5-------|
E|-0-2-3----------5-----|

G|---------------------------------------------|
D|---------------------------------------------|
A|-5-5-5-5-5-----------5-5-5-5-5---------------|
E|-----------3-3-3-3-3-----------5-5-5-5-5-----|

G|----------------------|
D|----------------------|
A|--------5-5-5-5-------|
E|-0-2-3----------5-----|

G|---------------------------------------------|
D|---------------------------------------------|
A|-5-5-5-5-5-----------5-5-5-5-5---------------|
E|-----------3-3-3-3-3-----------5-5-5-5-5-----|


[Chorus]

G|---------------------------------------------------------------------------|
D|---------------------------------------------------------------------------|
A|---8-8-8-8-8-5-5-5-5-5-5-5-5-5-5-----------3-3-3-3-3-8-8-8-8-8-5-5-5-5-5---| x2
E|-5-------------------------------5-5-5-5-5---------------------------------|


[Bridge]
  
G|----------------------------------------------|
D|----------------------------------------------|
A|-------------------------------5-5-5-5-5------| x3
E|-5-5-5-5-5-5-5-5-5-5-2-2-2-2-2----------------|

G|----------------------------------------------|
D|----------------------------------------------|
A|-----------3-3-3-3-3-8-8-8-8-8-5-5-5-5-5------|
E|-5-5-5-5-5------------------------------------|

[GUITAR SOLO]

G|------------------------------------------------------------------------|
D|------------------------------------------------------------------------|
A|------------------------------------------------------------------------|
E|-0--0-0-0-0-0-0-0-0-0-0-0-0-0-0-0-0-0-0-0-0-0-0-0-0-0-0-0-0-0-0-0-0-----| (32 open E)

G|----------------------------------------------------------------------------|
D|-2-2-2-2-2-2-2-2-2-2-2-2-2-2-2-2-2-2-2-2-2-2-2-2-2-2-2-2-2-2-2-2-2----------| (32 E) 
A|-------------------------------------------------------------------3-5-3-2--|
E|----------------------------------------------------------------------------| 

G|---------------------------------------------------------------------|
D|-2-2-2-2-2-2-2-2-2-2-2-2-2-2-2-2-2-2-2-2-2-2-2-2-2-------------------| (24 E) 
A|-------------------------------------------------------------1-------| x2
E|-----------------------------------------------------------1---------|

[Chorus]

G|----------------------------------------------------------------------------------|
D|----------------------------------------------------------------------------------|
A|-----------8-8-8-8-8-5-5-5-5-5-5-5-5-5-5-----------8-8-8-8-8-3-3-3-3-3-7-7-7-7-7--|
E|-5-5-5-5-5-------------------------------5-5-5-5-5--------------------------------|


G|----------------------------------------------------------------------------------|
D|----------------------------------------------------------------------------------|
A|-----------8-8-8-8-8-5-5-5-5-5-5-5-5-5-5-----------8-8-8-8-8-3-3-3-3-3------------|
E|-5-5-5-5-5-------------------------------5-5-5-5-5--------------------------------|


[Drum Solo Break]


[Outro]

G|---------------------------------------------|
D|---------------------------------------------|
A|-------------------------------5-5-5-5-5-----| x3
E|-5-5-5-5-5-5-5-5-5-5-2-2-2-2-2---------------|

G|---------------------------------------------|
D|---------------------------------------------|
A|-----------3-3-3-3-3-8-8-8-8-8-5-5-5-5-5-----|
E|-5-5-5-5-5-----------------------------------|

G|---------------------------------------------|
D|---------------------------------------------|
A|-------------------------------5-5-5-5-5-----| x3
E|-5-5-5-5-5-5-5-5-5-5-2-2-2-2-2---------------|

G|---------------------------------------------|
D|---------------------------------------------|
A|-----------3-3-3-3-3-8-8-8-8-8-5-5-5-5-5-----|
E|-5-5-5-5-5-----------------------------------|

            
            
Suggest correction
Creating personal tab
Creating personal tab
You can edit any tab online and save it as your Personal.

You can edit, replace or remove any tab part or add personal notes – all changes will be seen only by you.

Personal tabs can be accessed anytime from any device, even offline.
Learn more »
comments
print report bad tab
1 comment total.
+1 reply
serek1728 126 Aug 13, 2016 03:45 PM

In Bridge and Outro there is no 3 on E string, there should be 2.
In Guitar Solo there should be:
G|----------------------------------------------------------------------|
D|-2-2-2-2-2-2-2-2-2-2-2-2-2-2-2-2-2-2-2-2-2-2-2-2-2-2-2-2-2-2-2--------|
A|---------------------------------------------------------------2-3-2--|
E|--------------------------------------------------------------------3-|
Also Verse is messy. There should be E|-3-x-5-| insted of E|-0-2-3-| and in the next line it should be like this:
G|-----------------------------------------|
D|-----------------------------------------|
A|-----------------5-5-5-5-5---------------|
E|-5-5-0-3-3-3-3-3-----------5-5-5-5-5-5-5-|

guest
You may want to rate the tab now too:
select rating
Wanna post a correction for this tab? Suggest correction