Oops, an error
Loading. Please wait.
We have an official Bang Bang tab made by UG professional guitarists. Check out the tab »
×

Bang Bang tab

version 1
version 1

Whole song

Interactive

Video

65,407 views 450 this week
21 commentsread comments
1 2 3 4 5
x 55
add to favorites
×
Save as Personal and add changes to this tab that will be seen only by you. Learn more ›
×
You can save this tab as Personal to edit and correct it or add notes. All changes will be seen only by you. Learn more »
launch autoscroll
font size
0
reset
how to read this tab
guitar tuner
backing track
0:00
0:00
edit
Autoscroll
slow
fast
+/-
esc
set tempo
stop
Author
This is the tab to Green Day's new single "Bang Bang"

*Parts of the song feature what sounds like a rotary speaker or a phaser 


**The D powerchord in the chorus and intro is played ten times, but i could only fit 5!!!


[Intro]

e|---------------------------------------------------------------------------|
B|---------------------------------------------------------------------------|
G|---------------------------------------------------------------------------|
D|-7------7----7----7-----x--------------------------------------------------|
A|-7------7----7----7-----x--------------------------------------------------|
E|-5------5----5----5-----x--------------------------------------------------|

e|-----------------------------------------------------------------------------------------------------------|
B|-----------------------------------------------------------------------------------------------------------|
G|--------------10--10--10-10-10--7--7--7-7-7--------------------10-10--10-10-10---5--5--5-5-5--9--9--9-9-9--|
D|-7--7--7-7-7--10--10--10-10-10--7--7--7-7-7------7--7--7-7-7---10-10--10-10-10---5--5--5-5-5--9--9--9-9-9--|
A|-7--7--7-7-7--8---8---8--8--8---5--5--5-5-5------7--7--7-7-7---8---8---8--8--8---3--3--3-3-3--7--7--7-7-7--|
E|-5--5--5-5-5-------------------------------------5--5--5-5-5-----------------------------------------------|

e|----------------------------------------------------------------------------------------------------|
B|----------------------------------------------------------------------------------------------------|
G|--------------10--10--10-10-10--7--7--7-7-7--------------------10-10--10-10-10---5--5--5-5-5--9-9---|
D|-7--7--7-7-7--10--10--10-10-10--7--7--7-7-7------7--7--7-7-7---10-10--10-10-10---5--5--5-5-5--9-9---|
A|-7--7--7-7-7--8---8---8--8--8---5--5--5-5-5------7--7--7-7-7---8---8---8--8--8---3--3--3-3-3--7-7---|
E|-5--5--5-5-5-------------------------------------5--5--5-5-5----------------------------------------|


[Verse]

e|----------------------------|
B|----------------------------|
G|--------7-7-7-7-------------|
D|-2-5-7--7-7-7-7-7-----------|        x3
A|-2-5-7--5-5-5-5-7-----------|
E|-0-3-5----------5-----------|

e|------------------------------------------|
B|------------------------------------------|
G|-7-7-7-------------7-7-7-7-7--------------|
D|-7-7-7--5-5-5-5-5--7-7-7-7-7--7-7-7-7-7---|
A|-5-5-5--5-5-5-5-5--5-5-5-5-5--7-7-7-7-7---|
E|--------3-3-3-3-3-------------5-5-5-5-5---|

e|----------------------------|
B|----------------------------|
G|--------7-7-7-7-------------|
D|-2-5-7--7-7-7-7-7-----------| 
A|-2-5-7--5-5-5-5-7-----------|
E|-0-3-5----------5-----------|

e|------------------------------------------|
B|------------------------------------------|
G|-7-7-7-------------7-7-7-7-7--------------|
D|-7-7-7--5-5-5-5-5--7-7-7-7-7--7-7-7-7-7---|
A|-5-5-5--5-5-5-5-5--5-5-5-5-5--7-7-7-7-7---|
E|--------3-3-3-3-3-------------5-5-5-5-5---|


[Chorus]

e|-----------------------------------------------------------------------------------------------------------|
B|-----------------------------------------------------------------------------------------------------------|
G|--------------10--10--10-10-10--7--7--7-7-7--------------------10-10--10-10-10---5--5--5-5-5--9--9--9-9-9--|
D|-7--7--7-7-7--10--10--10-10-10--7--7--7-7-7------7--7--7-7-7---10-10--10-10-10---5--5--5-5-5--9--9--9-9-9--|
A|-7--7--7-7-7--8---8---8--8--8---5--5--5-5-5------7--7--7-7-7---8---8---8--8--8---3--3--3-3-3--7--7--7-7-7--|
E|-5--5--5-5-5-------------------------------------5--5--5-5-5-----------------------------------------------|

e|----------------------------------------------------------------------------------------------------|
B|----------------------------------------------------------------------------------------------------|
G|--------------10--10--10-10-10--7--7--7-7-7--------------------10-10--10-10-10---5--5--5-5-5--9-9---|
D|-7--7--7-7-7--10--10--10-10-10--7--7--7-7-7------7--7--7-7-7---10-10--10-10-10---5--5--5-5-5--9-9---|
A|-7--7--7-7-7--8---8---8--8--8---5--5--5-5-5------7--7--7-7-7---8---8---8--8--8---3--3--3-3-3--7-7---|
E|-5--5--5-5-5-------------------------------------5--5--5-5-5----------------------------------------|

e|----------------------------------------------------------------------------------------------------|
B|----------------------------------------------------------------------------------------------------|
G|--------------10--10--10-10-10--7--7--7-7-7--------------------10-10--10-10-10---5--5--5-5-5--9-9---|
D|-7--7--7-7-7--10--10--10-10-10--7--7--7-7-7------7--7--7-7-7---10-10--10-10-10---5--5--5-5-5--9-9---|
A|-7--7--7-7-7--8---8---8--8--8---5--5--5-5-5------7--7--7-7-7---8---8---8--8--8---3--3--3-3-3--7-7---|
E|-5--5--5-5-5-------------------------------------5--5--5-5-5----------------------------------------|


[Verse]
  
e|----------------------------|
B|----------------------------|
G|--------7-7-7-7-------------|
D|-2-5-7--7-7-7-7-7-----------| 
A|-2-5-7--5-5-5-5-7-----------|
E|-0-3-5----------5-----------|

e|------------------------------------------|
B|------------------------------------------|
G|-7-7-7-------------7-7-7-7-7--------------|
D|-7-7-7--5-5-5-5-5--7-7-7-7-7--7-7-7-7-7---|
A|-5-5-5--5-5-5-5-5--5-5-5-5-5--7-7-7-7-7---|
E|--------3-3-3-3-3-------------5-5-5-5-5---|

e|----------------------------|
B|----------------------------|
G|--------7-7-7-7-------------|
D|-2-5-7--7-7-7-7-7-----------| 
A|-2-5-7--5-5-5-5-7-----------|
E|-0-3-5----------5-----------|


e|------------------------------------------|
B|------------------------------------------|
G|-7-7-7-------------7-7-7-7-7--------------|
D|-7-7-7--5-5-5-5-5--7-7-7-7-7--7-7-7-7-7---|
A|-5-5-5--5-5-5-5-5--5-5-5-5-5--7-7-7-7-7---|
E|--------3-3-3-3-3-------------5-5-5-5-5---|


[Chorus]

e|----------------------------------------------------------------------------------------------------|
B|----------------------------------------------------------------------------------------------------|
G|-------10--10--10-10-10--7--7--7-7-7---------------------5--5--5-5-5--10--10--10-10-10-7--7--7-7-7--|
D|-7x----10--10--10-10-10--7--7--7-7-7-------7--7--7-7-7---5--5--5-5-5--10--10--10-10-10-7--7--7-7-7--| x2
A|-7x----8---8---8--8--8---5--5--5-5-5-------7--7--7-7-7---3--3--3-3-3--8---8---8--8--8--5--5--5-5-5--|
E|-5x----------------------------------------5--5--5-5-5----------------------------------------------|


[Bridge] 

e|------------------------------------------------------|
B|------------------------------------------------------|
G|---------------------------------------7--7--7-7-7----|
D|-7--7--7-7-7--7--7-7-7-7--4--4--4-4-4--7--7--7-7-7----| x3
A|-7--7--7-7-7--7--7-7-7-7--4--4--4-4-4--5--5--5-5-5----|
E|-5--5--5-5-5--5--5-5-5-5--2--2--2-2-2-----------------|


e|----------------------------------------------------------------|
B|----------------------------------------------------------------|
G|------------------5--5--5-5-5--10--10--10-10-10-7--7--7-7-7-----|
D|----7--7--7-7-7---5--5--5-5-5--10--10--10-10-10-7--7--7-7-7-----| 
A|----7--7--7-7-7---3--3--3-3-3--8---8---8--8--8--5--5--5-5-5-----|
E|----5--5--5-5-5-------------------------------------------------|


SOLO
it sounds like billie is playing octaves while jason is playing an E chord under the solo, 
however, it sounds fine either way.


e|--------------4-4-4--5--7-7-7--5--4-4-4--8-8-8-7-5-5-5---------------|
B|-----5-5-5--6--------------------------------------------------------|
G|--------------1-1-1--2--4-4-4--2--1-1-1--5-5-5-4-2-2-2---------------|
D|-2~--2-2-2--3------------------------------------------2-3-2-0-------|
A|-2~------------------------------------------------------------3-----|
E|-0~------------------------------------------------------------------|


e|--------------4-4-4--5--7-7-7--5--4-4-4--8-8-8-7-5-5-5-----------------|
B|-----5-5-5--6----------------------------------------------------------|
G|--------------1-1-1--2--4-4-4--2--1-1-1--5-5-5-4-2-2-2-----------------|
D|-----2-2-2--3------------------------------------------2-3-2-0---------|
A|---------------------------------------------------------------3-5-3-2-|
E|-----------------------------------------------------------------------|


   I wanna be...
e|-----------------------------------------------------------------|
B|-----------------------------------------------------------------|
G|----------1-1-1-1-------------------------------1-1-1-1-----3----|
D|-2-2-2--3-----------------2-2-2-2------2-2-2--3----------3--3----| x2
A|---------------------------------------------------------3--1----|
E|------------------1-1-1-1--------------------------------1-------|

[Chorus]
  
e|-----------------------------------------------------------------------------------------------------------|
B|-----------------------------------------------------------------------------------------------------------|
G|--------------10--10--10-10-10--7--7--7-7-7--------------------10-10--10-10-10---5--5--5-5-5--9--9--9-9-9--|
D|-7--7--7-7-7--10--10--10-10-10--7--7--7-7-7------7--7--7-7-7---10-10--10-10-10---5--5--5-5-5--9--9--9-9-9--|
A|-7--7--7-7-7--8---8---8--8--8---5--5--5-5-5------7--7--7-7-7---8---8---8--8--8---3--3--3-3-3--7--7--7-7-7--|
E|-5--5--5-5-5-------------------------------------5--5--5-5-5-----------------------------------------------|

e|----------------------------------------------------------------------------------------------------|
B|----------------------------------------------------------------------------------------------------|
G|--------------10--10--10-10-10--7--7--7-7-7--------------------10-10--10-10-10---5--5--5-5-5--------|
D|-7--7--7-7-7--10--10--10-10-10--7--7--7-7-7------7--7--7-7-7---10-10--10-10-10---5--5--5-5-5--------|
A|-7--7--7-7-7--8---8---8--8--8---5--5--5-5-5------7--7--7-7-7---8---8---8--8--8---3--3--3-3-3--------|
E|-5--5--5-5-5-------------------------------------5--5--5-5-5----------------------------------------|


--DRUM BREAK--


[Outro]
   
e|------------------------------------------------------|
B|------------------------------------------------------|
G|---------------------------------------7--7--7-7-7----|
D|-7--7--7-7-7--7--7-7-7-7--4--4--4-4-4--7--7--7-7-7----| x3
A|-7--7--7-7-7--7--7-7-7-7--4--4--4-4-4--5--5--5-5-5----|
E|-5--5--5-5-5--5--5-5-5-5--2--2--2-2-2-----------------|


e|----------------------------------------------------------------|
B|----------------------------------------------------------------|
G|------------------5--5--5-5-5--10--10--10-10-10-7--7--7-7-7-----|
D|----7--7--7-7-7---5--5--5-5-5--10--10--10-10-10-7--7--7-7-7-----| 
A|----7--7--7-7-7---3--3--3-3-3--8---8---8--8--8--5--5--5-5-5-----|
E|----5--5--5-5-5-------------------------------------------------|

e|------------------------------------------------------|
B|------------------------------------------------------|
G|---------------------------------------7--7--7-7-7----|
D|-7--7--7-7-7--7--7-7-7-7--4--4--4-4-4--7--7--7-7-7----| x3
A|-7--7--7-7-7--7--7-7-7-7--4--4--4-4-4--5--5--5-5-5----|
E|-5--5--5-5-5--5--5-5-5-5--2--2--2-2-2-----------------|


e|------------------------------------------------------------|
B|------------------------------------------------------------|
G|------------------5--5--5-5-5--10--10--10-10-10---7---------|
D|----7--7--7-7-7---5--5--5-5-5--10--10--10-10-10---7---------| 
A|----7--7--7-7-7---3--3--3-3-3--8---8---8--8--8----5---------|
E|----5--5--5-5-5---------------------------------------------|




************************************

| x   Dead note
| h   Hammer-on
| p   Pull-off
| b   Bend
| /   Slide up
| \   Slide down
************************************

            
            
Suggest correction
Creating personal tab
Creating personal tab
You can edit any tab online and save it as your Personal.

You can edit, replace or remove any tab part or add personal notes – all changes will be seen only by you.

Personal tabs can be accessed anytime from any device, even offline.
Learn more »
comments
print report bad tab
21 comments total. Showing first comments.
+4 reply
acaracci9 10 Aug 11, 2016 12:49 PM

Accurate Tab, pretty much the only out right now so amazing job!

+4 reply
pnamota 33 Aug 11, 2016 04:33 PM

Wow fast tab, thanks a lot!

+3 reply
Daavb 10 Aug 12, 2016 09:39 AM

Damn that was f**king fast. Good job :)

guest
You may want to rate the tab now too:
select rating
Wanna post a correction for this tab? Suggest correction